Mini-Flora's / March 2006 'Updated'

Rgschwerdt(z5aillinois)April 15, 2006

MINI- FLORA’S / MARCH, 2006

THIS IS NOT AN OFFICIAL ARS PUBLICATION.

This list is not meant to supersede, but compliment the 2005 AEN.

All information listed, is culled only from ARS latest publications,

along with missing information not in ARS official publications.

Listed below is the latest information on all Mini-Flora roses. Many

appear in the ARS 2005 AEN, Rose Registrations and ARS/IRAR

web site. A handy reference list of information for Judges and

Exhibitors, or anyone interested in roses that will perform well in their

garden. Corrections / Additions / Deletions will be posted, as official

information becomes available. Any help in making this list more

accurate and beneficial to the user, is always welcomed. Rose

Lists are published on the last day of each month. While encouraging

corrections, e-mail is preferred.

>>>>>>>>>>>>>>>>KEY INFORMATION (1)-ARS “Approved Exhibition Name”, AEN. (2)-ARS awards

received. (3)-Blooming Habit: P, patio rose of adequate bloom

and growth for container growing, CL, climbing variety; HB,

hanging basket; G/D, garden / decorative. (4)-Petal age: single

4-8; semi-dbl 9-16; double 17-25; full 26-40; very full 41+

petals. (5)-Bloom Form: HT hybrid teas (exhibition); OGR old

garden rose; open; flat; cupped. (6)-Bloom Size Open: Small,

under 4 cms 1.5”; Medium, 4 to 7 cms 1.5” to 2.75”; Large, 7+

cms 2.75+”.(7)-Blooming Habit: BIC, borne in clusters; (S),

solitary. (8)-Color Classification. (9)-Year rose was introduced /

registered (10)-Date rose was officially classified as mini-flora,

appearing in Rose Registrations of the Rose or in Modern Roses etc,

with a description as to blooms size, pedal count etc. NR are varieties

that have an approved “AEN”, but without further information

available on them in any official ARS publication. (11)-Latest

average national garden & exhibiting ratings: 9.3-10 one of the

best; 8.8-9.2 outstanding; 8.3-8.7 excellent; 7.8-8.2 very good;

7.3-7.7 good; 6.8-7.2 average; 6.1-6.7 below average; 0.0-6.0 not

recommended.(12)-Growth Habit: SG, spreading / ground cover,

BG bushy; CG compact; UG upright. (13)-Fragrance: A, fragrant

or slightly fragrant; B, very fragrant. (14)-Plant Heights: L, under

12”; M, 12 to 24”; T 24+”.

7.4 (7.3) Indicates the Rose is new and only has interim rating

and could possibility change with further reports.

Indicates roses in commerce in North America.

(**) Indicates new roses listed on ARS 2-28-06 mini-flora list.

(***) Indicates new roses listed on ARS 4-2-06 mini-flora list.

(****) Indicates additional roses listed on ARS 4-6-06 mini-flora list,

previously listed as Min-Fl roses in the 2005 AEN.

(**) Or (***) have no official backup to substantiate an official AEN.

No roses have been deleted, until information becomes available

in an official ARS publication.

**************By: Ronald Schwerdt 4-13-06**************

ABSOLUTE HIT -------------------------------------------------OR ***

---4-2-06-------------------------------------------------POULSEN

ADVERSITY----26/40---2”, BIC-------IRAR 6-28-05---------W

---2005-----9/2005※BG---A---M----JACK K. GOLDSTEIN

AFFECTION--------------------------------------------------------MR ***

---4-2-06-------------------------------------------------POULSEN

ALADDIN PALACE ----------------------------------------------AB ***

---4-2-06-------------------------------------------------POULSEN

ALEXA--------------17/25---HT---1.5-2”, (S)--------------------DP

---2001---7/2001---SG---A---T-------------------------M. MOE

ALICANTE----------------------------------------------------------DP ***

---4-2-06-------------------------------------------------POULSEN

ALIENA------------G/D---17/25---1.5-2”, (S)-------------------YB

---2001---8/2002---7.3 (7.5)--BG---T------------R. TUCKER

ALTO PARADE----------------------------------------------------AB ***

---4-2-06------------------------------------------------POULSEN

AMAZING PALACE----------------------------------------------AB **

---2004-----------------------------------------------R. POULSEN

AMBER FLASH-------P----15/25---1.5-2.75”------------------OB

---1982---4/2000----6.5 (5.8)---A---M--------J.B. WILLIAMS

AMBER HIT---------------------------------------------------------DR ***

---4-2-06-------------------------------------------------POULSEN

AMOR HIT-----------------------------------------------------------DR ***

---4-2-06-------------------------------------------------POULSEN

AMY GRANT------17/25---HT---1.5-1.75”, BIC / (S)---------LP

---1998---3/2001-----7.5 (7.6)----------------------R. TUCKER

ANDIE Mac DOWELL--AOE--17/25--HT---2.5”, BIC / S---OR

---2003--10/2003----UG---T-----------------M. C. WILLIAMS

ANDREA PARADE--------------------------------------------------M ***

---4-2-06--------------------------------------------------POULSEN

ANDROMEDA HIT--------------------------------------------------W ***

---4-2-06--------------------------------------------------POULSEN

ANNELI-------G/D---12/16---1.5”, BIC--------------------------OB

---2004---4/2004--------CG---A---L---------------S. McCANN

ANNETTE -----------------------------------------------------------MP ***

---4-2-06---------------------------------------------------OLESEN

AUTUMN BLISS-----12-1-05-------------------------------------YB

---2005---------------------------------------------------V. WELLS

AUTUMN SPLENDOR--AOE---26/40---HT---2”, (S)--------YB

---1999---MR XI---8.1 (8.1)---UG---A---T----R. WILLIAMS

BABYFACE--------G/D----17/25------2”, BIC-------------------W

---2001---3/2001----------BG---B---M-----------R. RAWLINS

BELLA VIA---------26/40---HT---1.5-2.75”, S------------------W

---1991--10/2000---6.4 (7.2)----UG---A---M-------H. ZIPPER

BELLE HIT----------------------------------------------------------LP ***

---4-2-06-------------------------------------------------POULSEN

BELLISSIMA-------17/25---HT---1.5-2.75”, (S)---------------OR

---1988--10/2000---7.6 (7.4)----UG---A---M------H. ZIPPER

BETTY’S BABY----------6/14-----1.5”, BIC--------------------DP

---1994---4/2000----------BG--------M-----------------J. BELL

BIJOU-----------------------------------------------------------------PB

---1991-------NR-----------------------------------------L. LENS

BLANCA PARADE-------------------------------------------------W ***

---4-2-06-------------------------------------------------POULSEN

BONBON HIT------------------------------------------------------YB ***

---1992---4-2-06---------------------------------------POULSEN

BORDEAUX PALACE-------------------------------------------MR ***

---4-2-06------------------------------------------------POULSEN

BOWIE YELLOW PATIO----------------------------------------MY

---1995-------NR-------------------------------J. B. WILLIAMS

BRIAN---------------------------------------------------------------MR

---1995-------NR--------------------------------------V. BARNI

BRIGHT STAR--------------------4/11----------------------------OR

---1999-------NR-------------------------------J. B. WILLIAMS

BRONZE BABY----------------------------------------------------YB

---1997-------NR----------------------------------C. A. PEARCE

BUBIKOP------------------------------------------------------------PB

---1986-------NR------------------------------------M. TANTAU

BUNTER KOBOLD------------------------------------------------YB

---1995-------NR------------------------------------P. DICKSON

BUTTER CREAM-----26/40---HT---2”, (S)--------------------MY

---2002----2/2003----7.8 (8.2)-------UG---T-------R. MARTIN

CACHET----------HT---26/40---2”, (S)----------------------------W

---1997---2/2001----7.8 (8.1)---UG---T-----------R. TUCKER

CALIFORNIA HEART---17/25----HT---1.5-2.75”, (S)-------OR

---2004----5/2004--------BG---A---T------------D. BENNETT

CALYPSO HIT------------------------------------------------------DR ***

---4-2-06--------------------------------------------------POULSEN

CAMDEN------17/25---HT---1.5-2”, (S)--------------------------M

---1997---5/2002-----UG---A---T-------------------R. HOUGH

CAMILLA PARADE-------------------------------------------------W ***

---4-2-06-------------------------------------------------POULSEN

CANOODLING----------G/D---12/16---1.5”, BIC--------------OB

---2004---4/2004---------UG---M------------------S. McCANN

CAPITOULE PALACE--------------------------------------------DR ***

---4-2-06--------------------------------------------------POULSEN

CARDINAL----------------------------------------------------------DR ***

---4-2-06----------------------------------------------------OLESEN

CAROLINE BRIAN-------------------------------------------------OB

---1997-------NR------------------------------------------------------

CAROLYN’S PASSION----P---17/25----1-1.5”, BIC---------MY

----1-23-06----3/2006----CG----A----L-----J. B. WILLIAMS

CHARISMATIC------17/25----HT---1.5-2”, (S)-----------------RB

---2003---4/2003----7.5 (7.8)---UG--T---DAVID CLEMONS

CHARMED------17/25-----HT---2.25”, (S)----------------------AB

---2002---1/2002----7.4 (7.3)-----BG---A---T---D. BRIDGES

CHATSWORTH-----------------------------------------------------DP

---1998-------NR-------------------------------------M. TANTAU

CHECKMATE--------------------26/40----HT---2.5-3”, (S)-----RB

---2001----8/2002---7.3 (7.0)----A---T-------------R. TUCKER

CHIC PARADE-------------------------------------------------------LP ***

---4-2-06--------------------------------------------------POULSEN

CHINESE PUZZLE---------------17/25-------1.5”, BIC---------RB

---1999---10/2001---------VG---A---T----------------D. GILES

CHRIS JOLLY---------------------40----HT---1.5-2.75”---------OR

---1985----4/2000---7.2 (6.6)----BG---A---M--------N. JOLLY

CITY LIGHTS-------------------------------------------------------DY

---1992---------NR----------------------------------R. POULSON

CLARA PARADE ---------------------------------------------------W ***

---4-2-06-------------------------------------------------POULSEN

CLASS OF 73--------17/25---HT---1.5”, (S)---------------------PB

---12-18-03---2/2004---7.4 (7.7)----UG----M----R. TUCKER

CLAUDIA PARADE-----------------------------------------------LP ***

---4-2-06-------------------------------------------------POULSEN

COLOUR MAGIC---------------------------------------------------PB

---1999---------NR---------------------------------------------------

COLOUR PARADE------------------------------------------------OR **

---1998-----------------------------------------------R. POULSEN

COLUMBINE PARADE-------------------------------------------LP ***

---4-2-06-------------------------------------------------POULSEN

COMEDY-----------26/40---1.5-2.75”, BIC---------------------YB

---2000---10/2000-----UG--------M-------------------D. GILES

CONUNDRUM------17/25---HT---2-3”, (S)--------------------YB

---2001----8/2002----7.7 (8.1)----UG---A---M----R. TUCKER

CORSAGE------------------------------------------------------------W

----2003------------------------------------------J. B. WILLIAMS

CORAL CARPET---------------------------------------------------MP

---1997--------NR-------------------------------J. B. WILLIAMS

CORAL PAGODE--------------------------------------------------PB **

---2000-----------------------------------------------R. POULSEN

CORAL PASTEL----------------------------------------------------OP

---2003--------------------------------------------J. B. WILLIAMS

CORALLINA--------------------------------------------------------OB

---1993--------NR---------------------------------------V. BARNI

CORNELIA HIT----------------------------------------------------MY ***

---4-2-06-------------------------------------------------POULSEN

COUGAR----------26/40---HT---1-1.5”, (S)---------------------RB

---2000---10/2000----VG---B---T----------------------M. MOE

CREAM PUFF--------18----2.75+”, BIC / (S)-------------------PB

---1981----4/2000---7.4 (7.2)---SG---A---M----D. BENNETT

DAILY POST--------------------------------------------------------DR

------------------------------------------------------------G. FRYER

DANDENONG------------------------------------------------------MR

---1987--------NR----------------------------------------------------

DYLLAN’S MOM-----G/D---17/25----HT---2”, (S)-----------RB

----2001----1/2002-----UG---A---T----------------B. EPSTEIN

DAZZLER----(KELdaz)--------------------------------------------YB **

---1997---------------------------------------------------M. KELLY

DAZZLER------------------------------------------------------------OP

---1995--------NR-------------------------------------A. GENESIS

DELIGHT------------------------------------------------------------AB ***

---4-2-06--------------------------------------------------POULSEN

DENISE PARADE---------------------------------------------------W ***

---4-2-06--------------------------------------------------POULSEN

DIFFERENT CHARM----G/D---41+----2.5”, (S)--------------OR

----2004----2/2005----CG----A----T----------------S. McCANN

DILLY DILLY--------35----HT---1.5-2.75”----------------------M

---1985----4/2000---7.6 (7.7)---UG---A---M---D. BENNETT

DOLLY DOT--------------------------J & P-----------------------DY

---1998---------NR---------------------JACKSON & PERKINS

DOLORES MARIE------G/D---41+---HT---2-3.5”, (S)--------M

---2001----3/2001---7.2 (7.1)---UG---B---M-----R. TUCKER

DONNAWAY HIT-------------------------------------------------AB ***

---4-2-06--------------------------------------------------POULSEN

DOUBLE GOLD------26/40--HT---2.5-3.25”, (S)-------------YB

---2002----8/2003----7.3 (7.2)----SG---B---T----W.R. WHITE

DR. JOHN DICKMAN-----------17/25---HT----2”, (S)---------M

---2001----8/2002-----7.7 (8.2)----SG---A---T----D. BRIDGES

DR. TROY GARRET----G/D---HT---26/40---2”, (S)---------MR

----10-28-05----1-2006----------UG----A---T------V. WELLS

DREAM LOVER-----------26/40------1.5”, (S)-----------------MP

---1998-----1/2002-----UG---A---M------------C. A. PEARCE

ELOISE-----17/25----1.5-2.75”, BIC-----------------------------MP

-----2003------4/2005-----SG---A---M-----JOYCE FLEMING

EMERALD HIT -----------------------------------------------------W ***

---4-2-06-------------------------------------------------POULSEN

EMILY LOUISE----------------------------------------------------DY

---1990--------NR---------------------------------R. HARKNESS

EQUINOX-----26/40---HT---1.5-2.75”, (S)---7-24-05--------OB

---2005-----11/2005----2-13-06----UG---T-------R. TUCKER

ESSIE LEE----------26/40---HT---1.5”, (S)----------------------OB

---1992----4/2000----BG---M----------------------------J. BELL

ESTEPONA HIT----------------------------------------------------OB ***

---4-2-06-------------------------------------------------POULSEN

ESTER JASIK--------------41+-----2”, (S)------------------------W

---1997---11/1999----UG--A---T--------------------H. ZIPPER

FAIR------------------------------------------------------------------MP **

---4-2-06-------------------------------------------------POULSEN

FANCY DANCER---------17/25----2.25”, (S)-------------------W

---2001----8/2002----7.2 (7.2)---CG----T---------D. BRIDGES

FANCY HIT---------------------------------------------------------OR ***

---4-2-06------------------------------------------------POULSEN

FANTASY HIT-----------------------------------------------------DR ***

---4-2-06------------------------------------------------POULSEN

FAVOURITE HIT--------------------------------------------------AB ***

---4-2-06------------------------------------------------POULSEN

FERRIN-------------------17/25---HT---2.75+”, BIC / (S)-----MP

---2000----3/2001---7.5 (7.5)----UG---A---M-----R. TUCKER

FESTIVAL-----------------------------------------------------------RB

---1994--------NR------------------------------------W. KORDES

FIERY HIT-----------------------------------------------------------OB ***

---4-2-06-------------------------------------------------POULSEN

FIREWORKS--------------------------------------------------------RB ***

---2005---4-2-06----------------------------------------DELBARD

FITZHUGH’S DIAMOND---26/40---HT---1.5”, S------------YB

----4-14-05----2-13-06----7/2005----UG---T-------V. WELLS

FLAMING------------------------------------------------------------OB ***

---2001---4-2-06--------------------------------------------OLSEN

FLAMINGO----------------------------------------------------------MP ***

---1999---4-2-06----------------------------------------POULSEN

FLIRTING PALACE-----------------------------------------------MR ***

---4-2-06-------------------------------------------------POULSEN

FLORITA-------------------------------------------------------------DP

---1994--------NR---------------------------------------V. BARNI

FLOWER POWER--------------------------------------------------OB

---1998----MR XI--------------------------------------G. FRYER

FONTANA-------HT---17/25---2.25”, BIC / (S)----------------AB

---2002----1/2002---7.2 (6.9)-----BG---A---T----D. BRIDGES

FOOLISH PLEASURE-----HT---26/40---1.5-2”, (S)-----------PB

---2003---4/2003---7.7 (8.1)----UG---T---DAVID CLEMONS

FRAGRANT MOON-----------------------------------------------MY ***

---4-2-06--------------------------------------------V. RICHARDS

FRILLY DILLY----------25 1.5”, BIC---------------------------LP

---1986----MR X----UG---A---T--------------------J. COCKER

FUCHSIA SUNBLAZE---------------------------------------------OP

-----------------NR-----------------------------ALAIN MEILAND

GAIA-----------------38---HT---2.75+”, (S)-----------------------PB

---1993----MR X---7.0 (7.3) ---BG---A---M--------V. BARNI

GAIL--------------------------------38---HT---2.75+”, (S)--------YB

---1986---3/2001---7.0 (7.3)---SG---A---M----D. BENNETT

GELBER KOBOLD------------------------------------------------DY

---1994-------NR----------------------------------------------------

GENTLE CLOWN--------------------------------------------------PB

---1994-----NR------------------------------------R. HARKNESS

GENTLEMAN’S AGREEMENT---26/40---HT--1.5”, (S)---MR

---1998---5/2001---7.5 (7.3)----BG----T---------D. BRIDGES

GEORGIA BELLE------P---HT---41+----2”, (S)----------------OP

---2000---12/2000----7.2 (7.0)----BG---A---T----P. TAYLOR

GLAMOUR GIRL---------------------------------------------------RB

---1992--------NR----8.2 (7.3)--------------------J. CLEMENTS

GLORIA PALACE--------------------------------------------------LP ***

---4-2-006-----------------------------------------------POULSEN

GLADYS QUINE-----P---17/25----1.5”, BIC-------------------OB

----12-1-05----3-2006----BG----A----M---------P. CHESSUM

GOLD COUNTRY-------20---HT---1.5”, (S)-------------------MY

---1987----3/2002---7.7 (7.1)----B---M-----------S. McCANN

GOLD PATIO-------------------------------------------------------DY

---1997--------NR---------------------------------------------------

GOLDEN ANNIVERSARY--------------------------------------MY

---1997--------NR---------------------------------------------------

GOLDEN FOX------------------------------------------------------DY

---1997--------NR-----------------------------------C. WARNER

GOLDEN HANDS-------------------------------------------------MY

---1959--------NR----------------------------------P. CHESSUM

GOLDEN HIT----(POULgold)---------------------------------- -DY **

---1996-----------------------------------------------R. POULSEN

GOLDEN JEWEL--------17/25----3”, BIC----------------------DY

---1995----MR IX-----VG/BG---A---------------M. TANTAU

GOLDEN TRUST----(HARdish)---------------------------------YB **

---2001----------------------------------------------R. HARKNESS

GRACELAND-------------------------------------------------------OP

---1989---------NR--------------------------------KIRKLAND

GRADUATION DAY------41+---2”, BIC-----------------------AB

---2004---4/2004------BG----A---M---------BRAD JALBERT

GRAND PALACE--------------------------------------------------DR

---1999---------NR----------------------------------R. POULSON

GRANNY’S FAVORITE------------------------------------------OP

------------------NR---------------------------------------------------

HAMPTON PALACE----------------------------------------------W

----1996---------NR---------------------------------R. POULSON

HAND IN HAND---------------------------------------------------OR

----1994---------NR----------------------------------HARKNESS

HAPPY BIRTHDAY------------------------------------------------W

----1997---------NR-------------------------------------------------

HAPPY TIMES-----------------------------------------------------MP

---1995-----NR-----4.9-----------------------------P. CHESSUM

HAREWOOD--------------------------------------------------------LP

---1993---------NR----------------------------------M. TANTAU

HARM SAVILLE---G/D----17/25---1.5-2.75”, (S)------------DR

---2004---2-13-06----9/2004---BG---A---T-----T. CARRUTH

HEARTLIGHT-----------------------------------------------------OB ***

---1985------------------------------------------------------G. KING

HEAVENS ABOVE----P---G/D---26/40---1.5-2”, BIC-------RB

---2003----10/2003-----BG---A---M------------R. WEBSTER

HEDGEFIRE--------------------------------------------------------MR

---1995---------NR----------------------------------W. KORDES

HEIDI PARADE----------------------------------------------------MP ***

---4-2-06-------------------------------------------------POULSEN

HONEYBEE------41+---2”, BIC----------------------------------AB

---12-18-2003----2/2004----BG---B---T----------D. ZLESAK

HOT PARADE-------------------------------------------------------DP ***

---4-2-06-----------------------------------------------POULSEN

HOUSE BEAUTIFUL---------------------------------------------MY

---1995---------NR-------------------------------R. HARKNESS

HUMANITY---------------------------------------------------------DR

---1995---------NR-------------------------------R. HARKNESS

IMPERIAL PALACE-----(IMPERIAL)-------------------------MR

---1996---------NR---------------------------------R. POULSON

INDIAN SILK---------P---26/40---1.5”, BIC---------------------W

---2000----11/2000----BG----A---M--------------------L. LENS

INGRID-----26/40---HT---3-4”, BIC-----------------------------RB

----2006----9/2005--- 6-21-05----UG---A---T--G. MANDER

ISABEL HIT---------------------------------------------------------DR ***

---4-2-06-------------------------------------------------POULSEN

ISOLDE------------26/40---1.5”, BIC-----------------------------PB

---1994----4/2000---7.3 (7.3) ---BG---A---M----JUDY BELL

ISOLDE HIT--------------------------------------------------------RB ***

---4-2-06-------------------------------------------------POULSEN

IVORY QUILL-------------------------------------------------------W

---2003--------------------------------------------J. B. WILLIAMS

JEANNE D’ARC PARADE ----------------------------------------W ***

---4-2-06-------------------------------------------------POULSEN

JENNIFER HIT------------------------------------------------------DR ***

---4-2-06-------------------------------------------------POULSEN

JERRY LYNN------26/40---HT---2.25”, (S)--------------------AB

---2004----9/2004----BG-----T----------------------R. TUCKER

JOLANDA HIT ------------------------------------------------------W ***

---4-2-06------------------------------------------------POULSEN

JANE ASHER-------P---41+---1.5”, BIC------------------------MR

---1988----MR X-----BG----L-------------------C. A. PEARCE

JOEY’S PALACE---------------------------------------------------AB

---1997---------NR---7.3 (7.3)---------------------R. POULSON

JOLLY GOOD-----------P---17/25---1.5”, BIC------------------OP

---2000----11/2000---7.2---BG---A---M---------------L. LENS

JOYCE-----------------------------------------------------------------LP

---2001----------NR-----------------------------J. B. WILLIAMS

JULIE PARADE-----------------------------------------------------LP ***

---4-2-06-------------------------------------------------POULSEN

KAYLEE ROSE----G/D-----41+----1.5”, BIC-------------------LP

---2001-----1/2002----BG----M-------------------HUGO KUZE

KIM PETERS---2-23-06-------------------------------------------MP

---2006-----------------------------------------------P. CHESSUM

KISMET-----17/25---HT---2”, BIC------7-24-05---------------YB

---2005-----2-13-06----11/2005-----CG---M------R. TUCKER

LADY E’OWYN----------26/40----HT---1.5”-------------------PB

---2000----3/2001---7.2 (7.4)-----BG---M---------R. TUCKER

LADY JENNIFER GREEN---2-23-06----------------------------W

---2006------------------------------------------------P. CHESSUM

LADY PARADE----------------------------------------------------MP ***

---4-2-06-------------------------------------------------POULSEN

LAGUNA PALACE------------------------------------------------OP

---1999----------NR---------------------------------R. POULSON

LAURA-------26/40---HT----1.5-2.75”, BIC--------------------RB

---2001-----10/2001----UG-----M---------------------D. GILES

LAUREL LOUISE--------------------------------------------------AB

---1999----------NR--------------------------------J. CLEMENTS

LEONINE PARADE-----------------------------------------------MR ***

---4-2-06-------------------------------------------------POULSEN

LIBERTY BELL-------26/40---HT---2.75+”, (S)---------------RB

----11/03---7.5 (7.6)---UG/BG---A---T---F. BENARDELLA

LIBERTY PARADE------------------------------------------------OB ***

---4-2-06-------------------------------------------------POULSEN

LIFE BEGINS AT 40-----G/D---17/25-----1.5”, BIC-----------W

---2002------5/2002----CG---A---M-----------C. P. HORNER

LIGHT----------------------------------------------------------------MY ***

---2000---4-2-06---------------------------------------POULSEN

LIMERICK------15/25---HT---1.5-2.75”, BIC------------------RB

---1991----11/1999---7.1 (4.2)----SG---A---M-----H.ZIPPER

LINDA PARADE---------------------------------------------------MP ***

---4-2-06-------------------------------------------------POULSEN

LITTLE DEB---------P----G/D---12/16----1-1.5”, BIC--------OR

---2002-----2/2003----CG---A---M-----------J. B. WILLIAMS

LITTLE LEN--------------------------------------------------------AB

---1987-----------NR--------------------------HATEFIELD & B

LITTLE RUBY------------------------------------------------------DR

---2003-------------------------------------------J.B. WILLIAMS

LIZA------------------------------------------------------------------MR

---1993-----------NR-------------------------------------V. BAMI

LOUISVILLE LADY------26/40----HT---2”, (S)---------------DP

---2003---10/2003---7.6 (8.1)-----SG---A---T--V. W. WELLS

LOVE NOTE--------35----HT----2.75+”, (S)---------------------PB

---1990----11/1999---7.6 (7.1)----BG ---A---T----H. ZIPPER

LOVEBIRD-----------------------------------------------------------W

---1988-----------NR--------------------FRANK COWLISHAW

LOYAL FRIEND-----------------------------------------------------W

---2001-----------NR-----------------------------------GARDNER

LUCKY ME------------G/D----26/40--1.5-2.75”, BIC----------MP

---2003------10/2003-----BG----M-------------B. & D. EAGLE

LUSCIOUS LUCY-------G/D---17/25---HT---2”, (S)-----------M

---2004---9/2004----BG----T------------------------R. TUCKER

MADELENE------17/25----1”, (S)---8-15-05-------------------YB

----2005----11/2005-------BG-----T---------R. GUILLEBEAU

MADELINE SPEZZANO------45---HT---1.5-2.75”-----------MP

---1985----4/2000---7.3 (7.6)---BG---A---M---D. BENNETT

MADONNA---------------------------------------------------------AB ***

----2001---4-2-06--------------------------------------POULSEN

MAGIC HIT---------------------------------------------------------RB ***

---4-2-06------------------------------------------------POULSEN

MAMA MIA-------------40+--HT---1.5-2.75”, BIC (S)--------MP

---1986----10/2000---7.4 (7.1)---BG---A---T------H. ZIPPER

MANDARIN SILK----26/40---HT---1.5-2.75”, (S)------------OB

---2005----1-2006----9-27-05----UG---T---JAMES DENTON

MANGO TANGO---------17/25---1.5-2.75”, (S)---------------AB

---2000----10/2000----UG---M-----7.4 (7.1)---------D. GILES

MARGARET DENTON----P---26/40---HT---2.5-3”, (S)-----RB

---2003----4/2003----CG----M------------------J. A. DENTON

MARIANNE HIT---------------------------------------------------MY ***

---4-2-06-------------------------------------------------POULSEN

MARIE CHRISTINA-----------------------------------------------LP

---1988----------NR-------------------------------------------------

MARTINA HIT-----------------------------------------------------DR ***

---4-2-06-------------------------------------------------POULSEN

MARTINIQUE HIT------------------------------------------------AB ***

---4-2-06-------------------------------------------------POULSEN

MARY LOUISE---------26/40---1.5-2.75”, (S)------------------M

---1996----10/1999----7.6 (7.5)----UG---A---T---L. BUSTER

MARY ‘n’ JOHN-------15/25---1.5-2.75”, BIC----------------MY

---2000----11/2000----BG---A---M---------------S. McCANN

MAXIMA HIT------------------------------------------------------OB ***

---4-2-06------------------------------------------------POULSEN

MELODY HIT------------------------------------------------------DP ***

---4-2-06------------------------------------------------POULSEN

MEMORY HIT-----------------------------------------------------OB ***

---4-2-06------------------------------------------------POULSEN

MEMPHIS BLUES---G/D---17/25---HT---1.5”, (S)------------M

----10-28-05---1-2006------SG----A----T-------V. W. WELLS

MEMPHIS KING--------26/40---HT--1.5-2.75”, (S)-----------DR

---2002----2/2003---7.5 (8.0)-------UG---A---M---V. WELLS

MEMPHIS MAGIC-----17/25---HT---2.5”, BIC---------------DR ****

---2005---2/2005---UG----A---M----------------V. W. WELLS

MEMPHIS MUSIC----2-23-06------------------------------------RB

---2006----------------------------------------------V. W. WELLS

METTE PARADE----------------------------------------------------W ***

---4-2-06-------------------------------------------------POULSEN

MICHELLE CLAIRE-----G/D----17/25---1.5”, BIC-----------OP

---2001----3/2001----CG---A---M-----------------H. HORNER

MISTRAL PARADE-----------------------------------------------DY ***

---4-2-06-------------------------------------------------POULSEN

MIKE PETERSON------17/25---HT---1.5-2”, (S)--------------LY

---2000----10/2000----UG---A---M--------------------M. MOE

MISTY EYED-------G/D----15-25---1.5-2.75”, BIC------------W

---2003-----10/2003-----SG---A---M--------------S. McCANN

MISTY MORNING------G/D----26/40---1.5”, (S)---------------M

---1995----4/2000----BG---A---M-----------------------G. BELL

MO MAMA----(HOUmom)---------------------------------------AB **

---2001--------------------------------------------------R. HOUGH

MOONDANCE MASQUERADE-----26/40----1”, (S)---------W

---12-1-05---3-2006---UG---A----M---------BART JALBERT

MOONLIGHT-------------------------------------------------------LY ***

---4-2-06-----------------------------------------------------OLSEN

MOONLIGHT SCENTSATION----41+----2.5-2.75”, (S)------W

---2004---10/2004----UG----B----T-------WENDY R. WHITE

MORAG ROSS-------G/D----17/25---1.5”, BIC----------------YB

---2002-----5/2002-----CG---A---M---------------H. HORNER

MR J C B------------------------------------------------------------MY ***

---4-2-06----------------------------------------------P. DICKSON

MRS MAVIS WATSON----P---17/25----1.5-2.75”, BIC------LY

---1-23-06---3/2006----BG---A----M------------P. CHESSUM

NATASJA HIT-------------------------------------------------------LP ***

---2005---4-2-06----------------------------------------POULSEN

NEMESIS---G/D---17/25---HT---1.5”, (S)----------------------RB

---2004----9/2004-----------UG----T---------------R. TUCKER

NEW ARRIVAL----------------------------------------------------OR

---1998-----------NR-------------------------------TED BROWN

NICOLA PARADE -------------------------------------------------PB ***

---4-2-06-------------------------------------------------POULSEN

NICOLE MARIE-----26/40---HT---1.75-2.25”, BIC-----------LY

---2002----5/2002---SG---T----------------ALBERT LERLAC

NICOLINE PARADE----------------------------------------------OR ***

---4-2-06------------------------------------------------POULSEN

NIGHT MUSIC------40+---1.5-2.75”, BIC / (S)----------------MP

---1988-----11/1999---7.6 (7.4)----UG---B---T----H. ZIPPER

NOBLE HIT---------------------------------------------------------MR ***

---4-2-06-------------------------------------------------POULSEN

NOLpeg----G/D----26/40---1.5-2.75”-----------------------------M

---7-14-04---8/2004------UG---M-------------G. D. NOLAND

NOLsue-----17/25---1.5-2.75”, BIC------------------------------PB

----11-18-04---9/2005---BG---A---M--------G. D. NOLAND

NORTHWEST SUNSET-----“FOUND” ROSE----------------OP

ORANGE SEABREEZE-------------------------------------------OP

---1996----------NR-----------------------------J. B. WILLIAMS

ORIENTAL PALACE----------------------------------------------OP

---1999----------NR---------------------------------R. POULSON

OUR DAUGHTER------P----G/D---41+----2.25”, BIC--------MP

---2002----1/2002---CG/BG---B---M-------BILL BLOSSOM

OUR SON---------------P------G/D----17/25----2”, BIC--------MR

---2002----1/2002---UG/BG---A---M-------BILL BLOSSOM

OUR TERRY--------------------------------------------------------DR ***

---2001---04-2-06----------------------------------R. WEBSTER

OVERNIGHT SCENTSATION-----41+---HT---2.5”, (S)----MP

---1997----4/2000---7.5 (7.3)---UG---B---M----H. SAVILLE

PAM TILLIS----G/D----41+---2.5-3”----------------------------AB

----6-1-04----8/2004-------UG----A---T---------H. SAVILLE

PATIO DANCE-------------------------20----HT----1.5”--------RB

---1984----4/2000----BG---A---L------------J. B. WILLIAMS

PATIO GOLD-----------40+---1.5”-------------------------------MY

---1984---4/2000---CG---A---L------------- J. B. WILLIAMS

PATIO JEWEL------5/7-----1.5-2.5”, BIC------------------------M

---1975----4/2000----VG/SG---A---M------J. B. WILLIAMS

PATIO ORANGE---------------------------------------------------OR

-------------------NR-------------------------------R. HARKNESS

PATIO PATTY-----P----G/D----16----2”, BIC------------------YB

---1975---4/2000----B---L---------------------J. B. WILLIAMS

PATIO PEARL---G/D---18/20---HT---1-1.5”, BIC / (S)-------PB

---1975---4/2000---VG---A---L---------------J. B. WILLIAMS

PATIO RIBBON---16----CUPPED---2.5-3”, BIC--------------DR

---1975----4/2000---VG----A---L------------J. B. WILLIAMS

PATIO SNOW----------35----1.5”----------------------------------W

---1984---4/2000---SG/CG---A---L----------J. B. WILLIAMS

PATRIOT’S DREAM---G/D--26/40---HT---1.5-2.75”, (S)---RB

---2000--10/2000---7.4 (7.3)---UG---A---T---M. WILLIAMS

PEACH DELIGHT----G/D--41+-----2-3/8”, (S)----------------AB

---2001---1/2002---7.7 (7.7)----SG---B---M-----H. SAVILLE

PEACH PARADE---------------------------------------------------AB ***

----4-2-06-------------------------------------------------POULSEN

PEACH PASTEL----------------------------------------------------AB

---2003---------------------------------------------J.B. WILLIAMS

PEARL ANNIVERSARY------------------------------------------LP

---1995----------NR---------------------------------P. CHESSUM

PERFECT HIT ------------------------------------------------------DP ***

---4-2-06-------------------------------------------------POULSEN

PERNILLE HIT-----------------------------------------------------OB ***

---4-2-06-------------------------------------------------POULSEN

PETER COTTONTAIL-----17/25----HT---2”-------------------W

---6-1-04---8/2004-------BG----A---T----------R. B. MARTIN

PETITE FREDAINE--------P---17/25----1.5”, BIC-------------OP

---2000----11/2000-----BG---A---M--------------------L. LENS

PINK HIT--------------------------6/14---1.5”----------------------LP

---1996----MR X---CG---L---------------------P. & M. OLSEN

PINK PATIO---------------------------------------------------------LP

---1997----------NR------------------------------------------

Thank you for reporting this comment. Undo
Rgschwerdt(z5aillinois)

Please use new listing. Thank you.

Ron S

    Bookmark   April 30, 2006 at 4:37PM
Sign Up to comment
More Discussions
Fall pruning
Well, it's getting close to that time of year for me...
ken-n.ga.mts
Miniflora Rose List, May 2012
MINIFLORA ROSE LIST, MAY. 2012 FC Miniflora listings...
Rgschwerdt
New Exhibitor needs advice
I have been searching high and low for really good...
frenchcuffs13
Miniflora Rose List, June, 2012
MINIFLORA ROSE LIST, JUNE 2012 Miniflora listings are...
Rgschwerdt
STICKY: Check out the GardenWeb Calendar of Events!
Have you checked out what's happening on our GardenWeb...
gwannouncements
© 2015 Houzz Inc. Houzz® The new way to design your home™