Mini-Flora Rose List, October 2006

Rgschwerdt(z5aillinois)October 31, 2006

MINI- FLORA ROSE LIST, OCTOBER 2006

NOT AN OFFICIAL ARS PUBLICATION.

This list is not meant to supersede, but compliment the 2006 Official List.

A reference of the latest rose information, for judges and exhibitors.

Information is culled from ARS latest official publications and CRL,

along with missing information not published. Corrections / Additions /

Deletions will be posted, as official information becomes available.

Rose Lists are published on the last day of each month.

>>>>>>>>>>>>>>>>KEY INFORMATION (1)-Approved Exhibition Name”, AEN. (2)-Blooming Habit: P, patio rose

for container growing, CL, climbing variety; HB, hanging basket; G/D,

garden / decorative. (3)-Petal age: single 4-8; semi-dbl 9-16; double 17-25;

full 26-40; very full 41+ petals. (4)-Bloom Form: HT hybrid teas (exhibition);

OGR old garden rose; open; flat; cupped. (5)-Bloom Size Open: Small,

4 cms 1.5”; Medium, 4 to 7 cms” to 2.75”; Large, 7+ cms 2.75+”.

(6)-Blooming Habit: BIC, borne in clusters; (S), solitary. (7)-Color.

(8)-Year introduced /registered (9)-Date mini-flora appeared in the

American Rose, “Rose Registrations”. NR, varieties with approved “AENs”,

without further information in official ARS publications. (10)-Roses In Review

Garden / Exhibition Ratings: 9.3-10 one of the best; 8.8-9.2 outstanding; 8.3-8.7

excellent; 7.8-8.2 very good; 7.3-7.7 good; 6.8-7.2 average; 6.1-6.7 below average;

0.0-6.0 not recommended.(11)-Growth Habit: SG, spreading/ ground cover,

BG bushy; CG compact; UG upright. (12)-Fragrance: A, fragrant or slightly fragrant;

B, very fragrant. (13)-Plant Heights: L, under 12”; M, 12 to 24”; T 24+”.

7.4 (7.3) Indicates the Rose is new and only has interim rating

and could possibility change with further reports.

(# 14) Indicates exhibition rating of top 25 roses, 2001-2005.

() Roses in commerce in North America

( # ) Award of Excellence (AoE)

( @ ) All America Rose Selection (AARS)

**************By: Ronald Schwerdt 10-31-06**************

ABSOLUTE HIT -----17/25---------------------------------------OR

---1996--------------------------------------------------POULSEN

ADVERSITY----26/40---2”, BIC---------------6-28-05---------W

---2005-----9/2005※BG---A---M----JACK K. GOLDSTEIN

AFFECTION-----9/16----------------------------------------------MR

---2005--------------------------------------------------POULSEN

ALADDIN PALACE ------17/25----------------------------------AB

---4-2-06-------------------------------------------------POULSEN

ALAN SANDY----G/D-----41+---2” BIC-----------------------MR

----8-11-06---10/2006-----CG----A----M------G. THOMSON

ALEXA--------------17/25---HT---1.5-2”, (S)--------------------DP

---2001---7/2001---SG---A---T-------------------------M. MOE

ALICANTE-------17/25---------------------------------------------DP

---2004---------------------------------------------------POULSEN

ALIENA------------G/D---17/25---1.5-2”, (S)-------------------YB

---2001---8/2002---7.3 (7.5)--BG---T-------------R. TUCKER

ALTO PARADE--------17/25--------------------------------------AB

---2004---------------------------------------------------POULSEN

AMAZING PALACE-------17/25---------------------------------AB

---2004-----------------------------------------------R. POULSEN

AMBER FLASH-------P----15/25---1.5-2.75”------------------OB

---1982---4/2000----6.5 (5.8)---A---M--------J.B. WILLIAMS

AMBER HIT------17/25--------------------------------------------DR

---2000---------------------------------------------------POULSEN

AMOR HIT-------17/25---------------------------------------------DR

---2003--------------------------------------------------POULSEN

AMY GRANT------17/25---HT---1.5-1.75”, BIC / (S)---------LP

---1998---3/2001-----7.5 (7.6)----------------------R. TUCKER

ANDIE Mac DOWELL ---17/25--HT---2.5”, BIC / S---------OR #

---2003--10/2003----UG---T-----------------M. C. WILLIAMS

ANDREA PARADE-----17/25-------------------------------------M

---2004---------------------------------------------------POULSEN

ANDROMEDA HIT------17/25------------------------------------W

---2004---------------------------------------------------POULSEN

ANNELI-------G/D---12/16---1.5”, BIC--------------------------OB

---2004---4/2004--------CG---A---L---------------S. McCANN

ANNETTE ------17/25----------------------------------------------MP

---1998-----------------------------------------------------OLESEN

ASHTON----17/25----1.5-1.75”-----------------------------------PB

---2006------4-17-06-----------------------------------V. WELLS

AUTUMN BLISS-----26/40---------------------------------------YB

---2005--------12-1-05---------------------------------V. WELLS

AUTUMN SPLENDOR----26/40----2”, (S)---------------------YB #

---1999---MR XI---8.1 (8.1)---UG---A---T----R. WILLIAMS

BABYFACE--------G/D----17/25------2”, BIC-------------------W

---2001---3/2001----------BG---B---M-----------R. RAWLINS

BELLA VIA---------26/40---HT---1.5-2.75”, S------------------W

---1991--10/2000---6.4 (7.2)----UG---A---M-------H. ZIPPER

BELLE HIT---------17/25------------------------------------------LP

---2005--------------------------------------------------POULSEN

BELLISSIMA-------17/25---HT---1.5-2.75”, (S)---------------OR

---1988--10/2000---7.6 (7.4)----UG---A---M------H. ZIPPER

BETTY’S BABY----------6/14-----1.5”, BIC--------------------DP

---1994---4/2000----------BG--------M-----------------J. BELL

BIJOU-----------------------------------------------------------------PB

---1991-------NR-----------------------------------------L. LENS

BLANCA PARADE-----17/25-------------------------------------W

---2001--------------------------------------------------POULSEN

BONBON HIT------9/16-------------------------------------------YB

---1992---4-2-06---------------------------------------POULSEN

BONFIRE---G/D---26/40---HT---2.75”, BIC-------------------RB #

---8-11-06---10/2006----UG---A----T------F. BENARDELLA

BORDEAUX PALACE-------17/25------------------------------MR

---2004--------------------------------------------------POULSEN

BOWIE YELLOW PATIO----------------------------------------MY

---1995-------NR-------------------------------J. B. WILLIAMS

BRIAN------------17/25---------------------------------------------MR

---1995-------NR---------------------------------------V. BARNI

BRONZE BABY----------------------------------------------------YB

---1997-------NR----------------------------------C. A. PEARCE

BUBIKOP------------------------------------------------------------PB

---1986-------NR------------------------------------M. TANTAU

BUD MEYERS----4/8----1.5”, (S)--------------------------------OB

---8-21-06----10/2006-----CG----M----------------S. McCANN

BUNTER KOBOLD------------------------------------------------YB

---1995-------NR------------------------------------P. DICKSON

BUTTER CREAM-----26/40---HT---2”, (S)-----------# 18---MY

---2002----2/2003----7.8 (8.2)-------UG---T-------R. MARTIN

CACHET----------HT---26/40---2”, (S)-------------------# 17---W

---1997---2/2001---7.8 (8.1)---UG---T-------------R. TUCKER

CALIFORNIA HEART---17/25----HT---1.5-2.75”, (S)-------OR

---2004----5/2004--------BG---A---T------------D. BENNETT

CALYPSO HIT------17/25-----------------------------------------DR

---1998---------------------------------------------------POULSEN

CAMDEN------17/25---HT---1.5-2”, (S)--------------------------M

---1997---5/2002-----UG---A---T--------------------R. HOUGH

CAMILLA PARADE------17/25-----------------------------------W

---2002---------------------------------------------------POULSEN

CANOODLING----------G/D---12/16---1.5”, BIC--------------OB

---2004---4/2004---------UG---M------------------S. McCANN

CAPITOULE PALACE-----17/25---------------------------------DR

---2002---------------------------------------------------POULSEN

CARDINAL-----17/25-----------------------------------------------DR

---4-2-06---2006 AEN------------------------------------OLESEN

CAROLINE BRIAN-------------------------------------------------OB

---1997-------NR------------------------------------------------------

CAROLYN’S PASSION----P---17/25----1-1.5”, BIC---------MY

----1-23-06----3/2006----CG----A----L------J. B. WILLIAMS

CHARISMATIC------17/25----HT---1.5-2”, (S)-----------------RB

---2003---4/2003----7.5 (7.8)---UG--T---DAVID CLEMONS

CHARMED------17/25-----HT---2.25”, (S)----------------------AB

---2002---1/2002----7.4 (7.3)-----BG---A---T---D. BRIDGES

CHATSWORTH-----------------------------------------------------DP

---1998-------NR-------------------------------------M. TANTAU

CHECKMATE--------------------26/40----HT---2.5-3”, (S)-----RB

---2001----8/2002---7.3 (7.0)----A---T-------------R. TUCKER

CHIC PARADE-----17/25-------------------------------------------LP

---2001----------------------------------------------------POULSEN

CHINESE PUZZLE---------------17/25-------1.5”, BIC---------RB

---1999---10/2001---------VG---A---T-----------------D. GILES

CHRIS JOLLY---------------------40----HT---1.5-2.75”---------OR

---1985----4/2000---7.2 (6.6)----BG---A---M--------N. JOLLY

CITY LIGHTS-------------------------------------------------------DY

---1992---------NR----------------------------------R. POULSON

CLARA PARADE -----17/25---------------------------------------W

---2004---------------------------------------------------POULSEN

CLASS OF 73--------17/25---HT---1.5”, (S)---------------------PB

---12-18-03---2/2004---7.4 (7.7)----UG----M----R. TUCKER

CLAUDIA PARADE-----17/25------------------------------------LP

---2000---------------------------------------------------POULSEN

COLOUR MAGIC---------------------------------------------------PB

---1999---------NR---------------------------------------------------

COLOUR PARADE------9/16-------------------------------------OR

---1998-----------------------------------------------R. POULSEN

COLUMBINE PARADE-----17/25-------------------------------LP

---2000--------------------------------------------------POULSEN

COMEDY-----------26/40---1.5-2.75”, BIC---------------------YB

---2000---10/2000-----UG--------M-------------------D. GILES

CONUNDRUM------17/25---HT---2-3”, (S)-----------#15----YB

---2001----8/2002----7.7 (8.1)----UG---A---M----R. TUCKER

CORAL CARPET---------------------------------------------------MP

---1997--------NR-------------------------------J. B. WILLIAMS

CORAL PAGODE------17/25--------------------------------------PB

---2000-----------------------------------------------R. POULSEN

CORAL PASTEL----------------------------------------------------OP

---2003--------------------------------------------J. B. WILLIAMS

CORALLINA--------------------------------------------------------OB

---1993--------NR---------------------------------------V. BARNI

CORNELIA HIT-----17/25----------------------------------------MY

---2003--------------------------------------------------POULSEN

CORSAGE------9/16-------------------------------------------------W

----2003------------------------------------------J. B. WILLIAMS

COUGAR----------26/40---HT---1-1.5”, (S)---------------------RB

---2000---10/2000----VG---B---T----------------------M. MOE

CREAM PUFF--------9/16----2.75+”, BIC / (S)-----------------PB

---1981----4/2000---7.4 (7.2)---SG---A---M----D. BENNETT

DANDENONG-----------------------------------------------------MR

---1987--------NR----------------------------------------------------

DAZZLER------------------------------------------------------------OP

---1995--------NR-------------------------------------A. GENESIS

DELIGHT------------------------------------------------------------AB

---4-2-06--------------------------------------------------POULSEN

DENISE PARADE-----9/16-----------------------------------------W

---2001----------------------------------------------------POULSEN

DIFFERENT CHARM----G/D---41+----2.5”, (S)--------------OR

----2004----2/2005----CG----A----T----------------S. McCANN

DILLY DILLY--------35----HT---1.5-2.75”----------------------M

---1985----4/2000---7.6 (7.7)---UG---A---M---D. BENNETT

DOLLY DOT--------------------------J & P-----------------------DY

---1998---------NR---------------------JACKSON & PERKINS

DOLORES MARIE------G/D---41+---HT---2-3.5”, (S)--------M

---2001----3/2001---7.2 (7.1)---UG---B---M-----R. TUCKER

DONNAWAY HIT------17/25------------------------------------AB

---2004---------------------------------------------------POULSEN

DOUBLE GOLD------26/40--HT---2.5-3.25”, (S)-------------YB

---2002----8/2003----7.3 (7.2)----SG---B---T----W.R. WHITE

DR. JOHN DICKMAN-----------17/25---HT----2”, (S)---------M

---2001----8/2002-----7.7 (8.2)----SG---A---T----D. BRIDGES

DR. TROY GARRET----G/D---HT---26/40---2”, (S)---------MR

----10-28-05----1-2006----------UG----A---T------V. WELLS

DREAM LOVER-----------26/40------1.5”, (S)-----------------MP

---1998-----1/2002-----UG---A---M------------C. A. PEARCE

DYLLAN’S MOM-----G/D---17/25----HT---2”, (S)-----------RB

----2001----1/2002-----UG---A---T----------------B. EPSTEIN

ELOISE-----17/25----1.5-2.75”, BIC-----------------------------MP

-----2003------4/2005-----SG---A---M-----JOYCE FLEMING

EMERALD HIT -----17/25-----------------------------------------W

---2004---------------------------------------------------POULSEN

EMILY LOUISE-------4/8-----------------------------------------DY

---1990--------NR---------------------------------R. HARKNESS

EQUINOX-----26/40---HT---1.5-2.75”, (S)---7-24-05--------OB

---2005-----11/2005----2-13-06----UG---T-------R. TUCKER

ESSIE LEE----------26/40---HT---1.5”, (S)----------------------OB

---1992----4/2000----BG---M----------------------------J. BELL

ESTEPONA HIT------17/25---------------------------------------OB

---2004--------------------------------------------------POULSEN

ESTER JASIK--------------41+-----2”, (S)------------------------W

---1997---11/1999----UG--A---T--------------------H. ZIPPER

FAIR-------17/25----------------------------------------------------MP

---1996--------------------------------------------------POULSEN

FANCY DANCER---------17/25----2.25”, (S)-------------------W

---2001----8/2002----7.2 (7.2)---CG----T---------D. BRIDGES

FANCY HIT-----17/25---------------------------------------------OR

---1994--------------------------------------------------POULSEN

FANTASY HIT-----9/16-------------------------------------------DR

---1993--------------------------------------------------POULSEN

FAVOURITE HIT----9/16----------------------------------------AB

---2002--------------------------------------------------POULSEN

FERRIN-------------------17/25---HT---2.75+”, BIC / (S)-----MP

---2000----3/2001---7.5 (7.5)----UG---A---M-----R. TUCKER

FESTIVAL-----------------------------------------------------------RB

---1994--------NR------------------------------------W. KORDES

FIERY HIT-----9/16------------------------------------------------OB

---1998-------------------------------------------------POULSEN

FIREWORKS-----17/25--------------------------------------------RB

---2005---4-2-06----------------------------------------DELBARD

FITZHUGH’S DIAMOND---26/40---HT---1.5”, S------------YB

----4-14-05----2-13-06----7/2005----UG---T-------V. WELLS

FLAMING-----17/25------------------------------------------------OB

---2001---4-2-06--------------------------------------------OLSEN

FLAMINGO------17/25---------------------------------------------MP

---1999---4-2-06----------------------------------------POULSEN

FLIRTING PALACE------17/25----------------------------------MR

---2003---------------------------------------------------POULSEN

FLORITA-------------------------------------------------------------DP

---1994--------NR---------------------------------------V. BARNI

FLOWER POWER-----17/25--------------------------------------OB

---1998----MR XI--------------------------------------G. FRYER

FONTANA-------HT---17/25---2.25”, BIC / (S)----------------AB

---2002----1/2002---7.2 (6.9)-----BG---A---T----D. BRIDGES

FOOLISH PLEASURE-----HT---26/40---1.5-2”, (S)-----------PB

---2003---4/2003---7.7 (8.1)----UG---T---DAVID CLEMONS

FRAGRANT MOON-----------------------------------------------MY

---4-2-06--------------------------------------------V. RICHARDS

FRILLY DILLY----------25 1.5”, BIC---------------------------LP

---1986----MR X----UG---A---T--------------------J. COCKER

FUCHSIA SUNBLAZE---------------------------------------------OP

-----2004------------NR---------------------ALAIN MEILLAND

GAIA-----------------38---HT---2.75+”, (S)-----------------------PB

---1993----MR X---7.0 (7.3) ---BG---A---M--------V. BARNI

GAIL-----------------------17/25----HT---2.75+”, (S)------------YB

---1986---3/2001---7.0 (7.3)---SG---A---M----D. BENNETT

GELBER KOBOLD------------------------------------------------DY

---1994-------NR----------------------------------------------------

GENTLE CLOWN--------------------------------------------------PB

---1994-----NR------------------------------------R. HARKNESS

GENTLEMAN’S AGREEMENT---26/40---HT--1.5”, (S)---MR

---1998---5/2001---7.5 (7.3)----BG----T---------D. BRIDGES

GEORGIA BELLE------P---HT---41+----2”, (S)----------------OP

---2000---12/2000----7.2 (7.0)----BG---A---T----P. TAYLOR

GLAMOUR GIRL---------------------------------------------------RB

---1992--------NR----8.2 (7.3)--------------------J. CLEMENTS

GLORIA PALACE------17/25--------------------------------------LP

---2003---------------------------------------------------POULSEN

GLADYS QUINE-----P---17/25----1.5”, BIC-------------------OB

----12-1-05----3/2006----BG----A----M---------P. CHESSUM

GOLD COUNTRY-------20---HT---1.5”, (S)-------------------MY

---1987----3/2002---7.7 (7.1)----B---M-----------S. McCANN

GOLD PATIO-------------------------------------------------------DY

---1997--------NR---------------------------------------------------

GOLDEN ANNIVERSARY--------------------------------------MY

---1997--------NR---------------------------------------------------

GOLDEN FOX------------------------------------------------------DY

---1997--------NR-----------------------------------C. WARNER

GOLDEN HANDS-------------------------------------------------MY

---1959--------NR----------------------------------P. CHESSUM

GOLDEN HIT --------9/16----------------------------------------DY

---1996-----------------------------------------------R. POULSEN

GOLDEN JEWEL--------17/25----3”, BIC----------------------DY

---1959----MR IX-----VG/BG---A---------------M. TANTAU

GOLDEN TRUST------17/25-------------------------------------YB

---2001---------------------------------------------R. HARKNESS

GRACELAND-------------------------------------------------------OP

---1989---------NR------------------------------------KIRKLAND

GRADUATION DAY------41+---2”, BIC-----------------------AB

---2004---4/2004------BG----A---M---------BRAD JALBERT

GRANNY’S FAVORITE------------------------------------------OP

------------------NR---------------------------------------------------

HAMPTON------17/25-----------------------------------------------W

----1996---------NR---------------------------------R. POULSON

HAND IN HAND---------------------------------------------------OR

----1994---------NR----------------------------------HARKNESS

HAPPY BIRTHDAY------------------------------------------------W

----1997---------NR-------------------------------------------------

HAPPY TIMES-----------------------------------------------------MP

---1995-----NR-----4.9-----------------------------P. CHESSUM

HARM SAVILLE---G/D----17/25---1.5-2.75”, (S)------------DR #

---2004---2-13-06----9/2004---BG---A---T-----T. CARRUTH

HEARTLIGHT------------------------------------------------------OB

---1985------------------------------------------------------G. KING

HEAVENS ABOVE----P---G/D---26/40---1.5-2”, BIC-------RB

---2003----10/2003-----BG---A---M-------------R. WEBSTER

HEDGEFIRE--------------------------------------------------------MR

---1983---------NR----------------------------------W. KORDES

HEIDI PARADE-----17/25----------------------------------------MP

---2006 AEN-------------------------------------------POULSEN

HIGH AMBITION--------------------------------------------------AB

---8-21-06-------------------------------------------V. W. WELLS

HONEYBEE------41+---2”, BIC----------------------------------AB

---12-18-03----2/2004----BG---B---T--------------D. ZLESAK

HOT PARADE------17/25------------------------------------------DP

---2005---------------------------------------------------POULSEN

HOT TO TROT----17/25----HT---2.5-2.75”---------------------OR

---8-21-06---10/2006-----UG----A----T-------MITCHIE MOE

HOUSE BEAUTIFUL---------------------------------------------MY

---1995---------NR-------------------------------R. HARKNESS

HUMANITY---------------------------------------------------------DR

---1995---------NR-------------------------------R. HARKNESS

INDIAN SILK---------P---26/40---1.5”, BIC---------------------W

---2000----11/2000----BG----A---M--------------------L. LENS

INGRID-----26/40---HT---3-4”, BIC-----------------------------RB

----2006----9/2005--- 6-21-05----UG---A---T--G. MANDER

INGRID’S SISTER ELISABETH----41+---HT---3”, BIC----PB

---8-3-06---10/2006-----UG----A----T-----------G. MANDER

ISOLDE------------26/40---1.5”, BIC-----------------------------PB

---1994----4/2000---7.3 (7.3) ---BG---A---M----JUDY BELL

ISABEL HIT----17/25---------------------------------------------DR

---1999--------------------------------------------------POULSEN

ISOLDE HIT--------17/25-----------------------------------------RB

---2004--------------------------------------------------POULSEN

IVORY QUILL------------------------------------------------------W

---2003-------------------------------------------J. B. WILLIAMS

JEANNE D’ARC PARADE --------------------------------------W

---4-2-06-------------------------------------------------POULSEN

JENNIFER HIT------17/25----------------------------------------DR

---2003--------------------------------------------------POULSEN

JERRY LYNN------26/40---HT---2.25”, (S)--------------------AB

---2004----9/2004----BG-----T---------------------R. TUCKER

JOLANDA HIT ------17/25-----------------------------------------W

---2002--------------------------------------------------POULSEN

JANE ASHER-------P---41+---1.5”, BIC------------------------MR

---1988----9/2004----BG----L-------------------C. A. PEARCE

JOLLY GOOD-----------P---17/25---1.5”, BIC------------------OP

---2000----11/2000---7.2---BG---A---M---------------L. LENS

JOYCE-------4/8------------------------------------------------------LP

---2001----------NR-----------------------------J. B. WILLIAMS

JULIE PARADE------17/25----------------------------------------LP

---2001---------------------------------------------------POULSEN

KAYLEE ROSE----G/D-----41+----1.5”, BIC-------------------LP

---2001-----1/2002----BG----M-------------------HUGO KUZE

KIM PETERS---26/40---1.5”, BIC--------------------------------MP

---2006----2-23-06----5/2006----BG--B----M----P. CHESSUM

KISMET-----17/25---HT---2”, BIC------7-24-05---------------YB

---2005-----2-13-06----11/2005-----CG---M------R. TUCKER

LADY E’OWYN----------26/40----HT---1.5”-------------------PB

---2000----3/2001---7.2 (7.4)-----BG---M---------R. TUCKER

LADY JENNIFER GREEN----G/D---4/8---1.5”, (S)-----------W

---2006----2-23-06----5/2006---------------M-----P. CHESSUM

LADY PARADE------17/25---------------------------------------MP

---2001--------------------------------------------------POULSEN

LAURA-------26/40---HT----1.5-2.75”, BIC--------------------RB

---2001-----10/2001----UG-----M---------------------D. GILES

LAUREL LOUISE--------------------------------------------------AB

---1999----------NR--------------------------------J. CLEMENTS

LEADING LADY---G/D---17/25---2.75-3”, (S)----------------W #

---8-11-06---10/2006----UG----A----T----F. BENARDELLA

LEONIE PARADE------17/25------------------------------------MR

---2001--------------------------------------------------POULSEN

LIBERTY BELL-------26/40---HT---2.75+”, (S)---------------RB

----11/03---7.5 (7.6)---UG/BG---A---T---F. BENARDELLA

LIBERTY PARADE------17/25-----------------------------------OB

---2000---------------------------------------------------POULSEN

LIFE BEGINS AT 40-----G/D---17/25-----1.5”, BIC-----------W

---2002------5/2002----CG---A---M-----------C. P. HORNER

LIGHT------17/25--------------------------------------------------MY

---2000---4-2-06---------------------------------------POULSEN

LIMERICK------17/25---HT---1.5-2.75”, BIC------------------RB

---1991----11/1999---7.1 (4.2)----SG---A---M-----H.ZIPPER

LINDA PARADE------17/25--------------------------------------MP

---2003--------------------------------------------------POULSEN

LITTLE DEB---------P----G/D---12/16----1-1.5”, BIC--------OR

---2002-----2/2003----CG---A---M-----------J. B. WILLIAMS

LITTLE LEN--------------------------------------------------------AB

---1987-----------NR--------------------------HATEFIELD & B

LITTLE RUBY-------4/8-------------------------------------------DR

---2003-------------------------------------------J.B. WILLIAMS

LIZA------------------------------------------------------------------MR

---1993-----------NR-------------------------------------V. BAMI

LOUISVILLE LADY------26/40----HT---2”, (S)---------------DP

---2003---10/2003---7.6 (8.1)-----SG---A---T--V. W. WELLS

LOVE NOTE--------35----HT----2.75+”, (S)---------------------PB

---1990----11/1999---7.6 (7.1)----BG ---A---T----H. ZIPPER

LOVEBIRD-----------------------------------------------------------W

---1998-----------NR--------------------FRANK COWLISHAW

LOYAL FRIEND-----------------------------------------------------W

---2001-----------NR-----------------------------------GARDNER

LUCKY ME------------G/D----26/40--1.5-2.75”, BIC----------DP

---2003------10/2003-----BG----M-------------B. & D. EAGLE

LUSCIOUS LUCY-------G/D---17/25---HT---2”, (S)-----------M

---2004---9/2004----BG----T------------------------R. TUCKER

MADELEINE------17/25----1”, (S)---8-15-05------------------YB

----2005----11/2005-------BG-----T---------R. GUILLEBEAU

MADELINE SPEZZANO------45---HT---1.5-2.75”-----------MP

---1985----4/2000---7.3 (7.6)---BG---A---M---D. BENNETT

MADONNA------17/25---------------------------------------------AB

----2001---4-2-06---------------------------------------POULSEN

MAGIC HIT-------17/25--------------------------------------------RB

---2001---------------------------------------------------POULSEN

MAMA MIA-------------40+--HT---1.5-2.75”, BIC (S)--------MP

---1986----10/2000---7.4 (7.1)---BG---A---T------H. ZIPPER

MANDARIN SILK----26/40---HT---1.5-2.75”, (S)------------OB

---2005----1-2006----9-27-05----UG---T---JAMES DENTON

MANGO TANGO---------17/25---1.5-2.75”, (S)---------------AB

---2000----10/2000----UG---M-----7.4 (7.1)---------D. GILES

MARGARET DENTON----P---26/40---HT---2.5-3”, (S)-----RB

---2003----4/2003----CG----M------------------J. A. DENTON

MARIAM ISMAILJEE---------9-27-06--------------------------RB

---2006------------------------------------------------G. MANDER

MARIANNE HIT------9/16---------------------------------------MY

---2001---------------------------------------------------POULSEN

MARIE CHRISTINA-----------------------------------------------LP

---1988----------NR-------------------------------------------------

MARTINA HIT-----9/16-------------------------------------------DR

---1998---------------------------------------------------POULSEN

MARTINIQUE HIT------17/25------------------------------------AB

---2004---------------------------------------------------POULSEN

MARY LOUISE---------26/40---1.5-2.75”, (S)------------------M

---1996----10/1999----7.6 (7.5)----UG---A---T---L. BUSTER

MARY’S PLEASURE- THE MARY WOODS ROSE--------DP

---2006---5-10-06----------------------------------P. CHESSUM

MARY ‘n’ JOHN-------15/25---1.5-2.75”, BIC----------------MY

---2000----11/2000----BG---A---M---------------S. McCANN

MAXIMA HIT------9/16-------------------------------------------OB

---2002--------------------------------------------------POULSEN

MEE MAW----17/25----HT----2”, BIC---------------------------PB

---9-14-26---10/2006----BG----T---------JAMES A. SPROUT

MELODY HIT------17/25------------------------------------------DP

---1998--------------------------------------------------POULSEN

MEMORY HIT-----17/25------------------------------------------OB

---2000---------------------------------------------------POULSEN

MEMPHIS BLUES---G/D---17/25---HT---1.5”, (S)------------M

----10-28-05---1-2006------SG----A----T-------V. W. WELLS

MEMPHIS CAJUN-----4-30-06------------------------------------M

---2006----------------------------------------------V. W. WELLS

MEMPHIS KING--------26/40---HT--1.5-2.75”, (S)-----------DR

---2002----2/2003---7.5 (8.0)-------UG---A---M---V. WELLS

MEMPHIS MAGIC-----17/25---HT---2.5”, BIC---------------DR

---2005---2/2005---UG----A---M----------------V. W. WELLS

MEMPHIS MUSIC---17/25---HT---1.5”, (S)-------------------RB

---2006---2-23-06---5/2006----UG---A---T----V. W. WELLS

METTE PARADE-----17/25---------------------------------------W

---2004--------------------------------------------------POULSEN

MICHELLE CLAIRE-----G/D----17/25---1.5”, BIC-----------OP

---2001----3/2001----CG---A---M-----------------H. HORNER

MISTRAL PARADE------17/25----------------------------------DY

---2000--------------------------------------------------POULSEN

MIKE PETERSON------17/25---HT---1.5-2”, (S)--------------LY

---2000----8/2003------UG---A---M--------------------M. MOE

MISTY EYED-------G/D----15-25---1.5-2.75”, BIC------------W

---2003-----10/2003-----SG---A---M--------------S. McCANN

MISTY MORNING------G/D----26/40---1.5”, (S)---------------M

---1995----4/2000----BG---A---M-----------------------G. BELL

MOONDANCE MASQUERADE-----26/40----1”, (S)---------W

---12-1-05---3-2006---UG---A----M---------BART JALBERT

MOONLIGHT-----17/25-------------------------------------------LY

---2006 AEN-----------------------------------------------OLSEN

MOONLIGHT SCENTSATION----41+----2.5-2.75”, (S)------W

---2004---10/2004----UG----B----T-------WENDY R. WHITE

MR JCB--------------------------------------------------------------MY

---4-2-06---------------------------------------------P. DICKSON

MORAG ROSS-------G/D----17/25---1.5”, BIC----------------YB

---2002-----5/2002-----CG---A---M---------------H. HORNER

MRS MAVIS WATSON----P---17/25----1.5-2.75”, BIC------LY

---1-23-06---3/2006----BG---A----M------------P. CHESSUM

NATASJA HIT-----9/16--------------------------------------------LP

---2005---------------------------------------------------POULSEN

NEMESIS---G/D---17/25---HT---1.5”, (S)----------------------RB

---2004----9/2004-----------UG----T---------------R. TUCKER

NEW ARRIVAL----------------------------------------------------OR

---1998-----------NR-------------------------------TED BROWN

NICOLA PARADE -----17/25-------------------------------------PB

---2004---------------------------------------------------POULSEN

NICOLE MARIE-----26/40---HT---1.75-2.25”, BIC-----------LY

---2002----5/2002---SG---T----------------ALBERT LERLAC

NICOLINE PARADE------17/25---------------------------------OR

---2000--------------------------------------------------POULSEN

NIGHT MUSIC------40+---1.5-2.75”, BIC / (S)----------------MP

---1988-----11/1999---7.6 (7.4)----UG---B---T----H. ZIPPER

NOBLE HIT------17/25--------------------------------------------MR

--- 1998-------------------------------------------------POULSEN

NOLpeg----G/D----26/40---1.5-2.75”-----------------------------M

---7-14-04---8/2004------UG---M-------------G. D. NOLAND

NOLsue-----17/25---1.5-2.75”, BIC------------------------------PB

----11-18-04---9/2005---BG---A---M--------G. D. NOLAND

ORANGE SEABREEZE-------------------------------------------OP

---1999----------NR-----------------------------J. B. WILLIAMS

OUR DAUGHTER------P----G/D---41+----2.25”, BIC--------MP

---2002----1/2002---CG/BG---B---M-------BILL BLOSSOM

OUR SON---------------P------G/D----17/25----2”, BIC--------MR

---2002----1/2002---UG/BG---A---M-------BILL BLOSSOM

OUR TERRY------26/40--------------------------------------------DR

---2001-----------------------------------------------R. WEBSTER

OVERNIGHT SCENTSATION-----41+---HT---2.5”, (S)----MP

---1997----4/2000---7.5 (7.3)---UG---B---M----H. SAVILLE

PAM TILLIS----G/D----41+---2.5-3”----------------------------AB

----6-1-04----8/2004-------UG----A---T---------H. SAVILLE

PATIO DANCE-------------------------20----HT----1.5”--------RB

---1984----4/2000----BG---A---L------------J. B. WILLIAMS

PATIO GOLD-----------40+---1.5”-------------------------------MY

---1984---4/2000---CG---A---L------------- J. B. WILLIAMS

PATIO JEWEL------5/7-----1.5-2.5”, BIC------------------------M

---1975----4/2000----VG/SG---A---M------J. B. WILLIAMS

PATIO ORANGE---------------------------------------------------OR

-------------------NR-------------------------------R. HARKNESS

PATIO PATTY-----P----G/D----9/16----2”, BIC----------------YB

---1975---4/2000----B---L---------------------J. B. WILLIAMS

PATIO PEARL---G/D---9/16---HT---1-1.5”, BIC / (S)--------PB

---1975---4/2000---VG---A---L---------------J. B. WILLIAMS

PATIO RIBBON---9/16----CUPPED---2.5-3”, BIC------------DR

---1975----4/2000---VG----A---L------------J. B. WILLIAMS

PATIO SNOW---------17/25----1.5”-------------------------------W

---1984---4/2000---SG/CG---A---L----------J. B. WILLIAMS

PATRIOT’S DREAM---G/D--26/40---HT---1.5-2.75”, (S)---RB

---2000--10/2000---7.4 (7.3)---UG---A---T---M. WILLIAMS

PEACH DELIGHT----G/D--41+-----2-3/8”, (S)----------------AB

---2001---1/2002---7.7 (7.7)----SG---B---M-----H. SAVILLE

PEACH PARADE------17/25--------------------------------------AB

----2000--------------------------------------------------POULSEN

PEACH PASTEL----------------------------------------------------AB

---2003---------------------------------------------J.B. WILLIAMS

PEARL ANNIVERSARY------------------------------------------LP

---1995----------NR---------------------------------P. CHESSUM

PERFECT HIT ------17/25-----------------------------------------DP

---1996--------------------------------------------------POULSEN

PERNILLE HIT-----9/16------------------------------------------OB

---1998--------------------------------------------------POULSEN

PETER COTTONTAIL-----17/25----HT---2”-------------------W

---6-1-04---8/2004-------BG----A---T----------R. B. MARTIN

PETITE FREDAINE--------P---17/25----1.5”, BIC------------OP

---2000----11/2000-----BG---A---M--------------------L. LENS

PINK PATIO---------------------------------------------------------LP

---1997----------NR-------------------------------------------------

PINK PIRQUETTE-------------------------------------------------MP

---1998----------NR-------------------------------R. HARKNESS

PIPPY------------------------------------------------------------------PB

---1995----------NR--------------------------------------V. BARNI

POLAR CAP-----17/25---HT---2.25”, (S)-------------------------W

---2005---2/2005---UG---A---T--------------------V. W. WELLS

POOPSIE--------26/40---1-2”, BIC---------------------------------W

---2003-----4/2003----UG----T---------------C. GREENWOOD

PROM NITE----40+---HT---1.5-2.75”, BIC---------------------PB

---1987----10/2000----8.0 (7.4)----BG---A---M----H. ZIPPER

PROVIDENCE-------26/40---HT---1.5-2.25”, BIC------------MY

---2003---4/2003---BG---T----7.3 (7.5)------------R. TUCKER

PURE HIT-----17/25-------------------------------------------------W

--- 1993--------------------------------------------------POULSEN

PURE MAGIC-------------------------------------------------------OB

---1999-----------NR--------------------------------------------------

PURPLE DAWN------25----HT---1.5”, BIC / (S)---------------M

---1991----3/2001---7.6 (8.0)---A---T--------------D. BRIDGES

PURPLE ‘n’ GOLD-----26/40---HT---3-3.5”, BIC--------------M

---2004---2/2005----BG----A---T------------------G. MANDER

PZAZZ HIT----17/25-----------------------------------------------RB

---1996---4-2-06----------------------------------------POULSEN

QUIET TIME----------25/40---1.5”, BIC / (S)--------------------M

---1995----4/2000---7.

Thank you for reporting this comment. Undo
Rgschwerdt(z5aillinois)

Please use new listing, thanks.

Ron S

    Bookmark   November 30, 2006 at 6:58PM
Sign Up to comment
More Discussions
Miniflora Rose List, September 2012
MINIFLORA ROSE LIST, SEPTEMBER 2012 Miniflora listings...
Rgschwerdt
GardenWeb needs your feedback!
Hi everyone, As you may have noticed, we've been sprucing...
gwannouncements
Greater Gwinnett Fall Rose Show
October 11th, Buford, Georgia. If you grow/exhibit...
buford
Johnny Becnel's Website
Calvin Boutte told me that they are in the process...
kokosrose
ARS 2012 Official Rose List Supplement, November 2012
ARS 2012 Official Rose List Supplement, NOVEMBER 2012 THIS...
Rgschwerdt
Sponsored Products
Athena Ceramic Table Lamp
Lightology
R Series White 12-Inch Outdoor Cord Pendant
$71.90 | Bellacor
Tondo 18 Bronze One-Light Mini Pendant with Habanero Glass
$396.00 | Bellacor
Olde Bronze Mini Pendant 1-Light
$60.00 | PLFixtures
Pre-owned Vintage Portrait of a Woman
$600.00 | Chairish
Slate Tile: Emser Garage Storage Black Mini Stacked 6 in. x 24 in. Quartzite
$19.23 | Home Depot
Hudson Bath Bar
Lightology
Antique Tiffany Style Flower Wall Lamp Night Light
ParrotUncle
© 2015 Houzz Inc. Houzz® The new way to design your home™