Return to the Rose Exhibiting Forum | Post a Follow-Up

 o
2004 Floribunda Rose List Part 1

Posted by Rgschwerdt z5aillinois (My Page) on
Fri, May 14, 04 at 16:59

2004 FLORIBUNDA ROSE LIST PART 1
Listed below is a very comprehensive up to date listing of
Floribunda roses, eligible to be exhibited in a rose show. All
are registered with ARS, or assigned an approved exhibition
name, "AEN". Many are varieties, which are not listed in the
latest "AEN", or other ARS publications. Its a handy
reference of information for judges and exhibitors, or anyone
just interested in roses that will perform well in their garden,
based on reports from people who have grown them over the
years. Corrections / Additions / Deletions will be posted, as
official information becomes available. Any help in making
this list more accurate and beneficial to the user is always
welcome.

>>>>>>>>>>>>>>>KEY INFORMATION<<<<<<<<<<<<<<
(1)-ARS "Approved Exhibition Name", AEN. (2)-ARS awards
received. (3)-Blooming Habit: P, patio rose of adequate bloom
and growth for container growing; CL, climbing variety; HB,
hanging basket; G/D, garden / decorative. (4)-Petal age: single
4-11; semi-dbl 12-16; double 17-25; full 26-40; very full 41+
petals. (5)-Bloom Form: HT hybrid teas (exhibition); OGR old
garden rose; open; flat; cupped. (6)-Bloom Size Open: Small,
under 4cms 1.5"; Medium, 4 to 7 cms 1.5" to 2.75"; Large,
7+ cms 2.75+". (7)-Blooming Habit: BIC, borne in clusters;
S, solitary. (8)-Color Classification. (9)-Year the rose was
registered. (10)-The latest average national garden &
exhibiting ratings: 9.3-10 one of the best; 8.8-9.2 outstanding;
8.3-8.7 excellent; 7.8-8.2 very good; 7.3-7.7 good; 6.8-7.2
average; 6.1-6.7 below average; 0.0-6.0 not recommended.
(11)-Growth Habit: SG, spreading / ground cover, BG bushy;
CG compact;,UG upright. (12)- Fragrance: A, fragrant or
slightly fragrant; B, very fragrant.(13)- Plant Heights: L, under
24"; M, 24 to 36"; T, 36+".

*************BY: Ronald Sshwerdt 5-14-04*************

A.J. HERWIG----------------------------------------------------------
----1965
ABERDONIAN-----------------20---2.75+"---------------------RB
---1974----------------A
ABUNDANCE------------------30---4.5"------------------------MP
---1974----------BG---A---L
ACADIA SUNRISE-----------------------------------------------OR
---2001
ACAPULCO----------30/40---CUPPED---BIC----------------YB
----1962---5.9---CG---A---M
ACCENT-------------25---FLAT---2-2.5"-----------------------MR
---1977---6.5---CG---A
ACCORD-----------------------HT---BIC-------------------------AB
---1965----------BG---A
ADELINE GENEE---------50---4", BIC------------------------MY
---1967----------BG---A
ADOLF GRILLE-----------25---4.5", BIC-----------------------DP
---1940----------CG---A
ADOLF PAPELU---------------------------------------------------W
---1998
ADRIAN-----------------------------------------------------------------
ADRIAN BAILEY----------------28---3.5"----------------------OP
---1972----BG/UG
ADRIEN MERCIER-----------------------------------------------RB
ADRIENNE LEAL -------------1.5-2.75"------------------------DP
---1965---------VG---A
AFLAME------------------12/16---4", BIC-----------------------OP
---1954-----VG/SG---B---L
AFTERGLOW------------------------------------------------------DP
AGATHA CHRISTIE------------17/25---1.5-2.75", BIC------DP
---1966----------CG-------L
AGNES KRUSE----------2.75+"-------------------------------------
---1936----------VG
AGNES LAURA BLACKBURN----5---1.5-2.75", BIC-----YB
---1989
AGREEMENT-------------30---HT--3"--------------------------PB
---1971
AHALYA------------------------------------------------------------LP
---1969
AHIO----------BIC--------------------------------------------------OR
---1964----------BG--------L
AHLIN---------------15---HT---BIC------------------------------OB
---1979---7.9---UG---A---M
AILEEN-----------17/25---3.5"------------------------------------AB
---1975----------UG---A
AIRBORNE----------17/25---2.75+----------------------------------
---1949----------VG---A
AISLING-----------17/25---4"--------------------------------------W
---1966----------VG---A
AKASHDEEP-------------------------------------------------------OR
---1993
AKEMI-----------33---2-2.5"---------------------------------------OR
---1977----VG/UG---A
AKITO-----------17/25---1.5-2.75"---------------------------------W
---1974
ALADDIN---------41+---1.5-2.75", BIC ------------------------MR
---1965
ALAIN, CLIMBING---CL----------------------------------------MR
---1957
ALAIN---12/16--------------1.5-2.75", BIC / S-----------------MR
---1948---8.0---BG---A---M
ALAMEIN------------10---FLAT---3", BIC---------------------MR
---1963--------BG---A
ALANTIS------------5---3"------------------------------------------M
---1970---------------A
ALANTIS------------------------------------------------------------DY
---1999
ALBERT------------50---HT---1.5-2.75", BIC-------------------OP
---1962---7.5---BG/CG
ALBERTA HUNTER------------25---2.75+", S-----------------LY
---1985--------UG---A---M
ALBERTA-------------6/14---2.75+", BIC-----------------------DP
---1995---------SG---A---M
ALBERT-GEORG PLUTA ROSE -----17/25---2.75+"-------MR
---1986
ALCAZAR------------------18---3"--------------------------------OR
---1961--------BG---A
ALCMARIA--------------17/25---2.75+"------------------------MR
---1971
ALCONBURY------------41+---1.5-2.75", BIC-----------------DP
---1996---BG/UG---A---T
ALEC ROSE------------------HT---BIC---------------------------OR
---1969---------SG
ALEGRIAS------------23------CUPPED---BIC------------------RB
---1978---UG/BG
ALEX C. COLLIE--------------------------------------------------MR
---1996--------BG--------M
ALEXANDRA LEEK------------5---1.5-2.75", BIC------------AB
---1995--------BG---A---T
ALEXIA WILSON------------------SPORT----------------------OB
---1972
ALEXIA--------------20---1.5-2.75"-------------------------------PB
---1984--------UG----A
ALI BABA--------------15/20---2.75+", BIC-------------------OR
---1963
ALIBI--------------30---3-4"-----------------------------------------W
---1960--------VG
ALICE AMOS-------------4/11----BIC----------------------------PB
---1922--------VG
ALICE JARRETT------G/D----26/40---3-3.5", BIC-----------OB
---1999--------UG---A---T
ALICE KING-----------40/50---1.5", BIC-----------------------MR
---1988---------VG
ALICE PAT--------------38----BIC--------------------------------RB
---1981---------UG---A---L
ALISON WHEATCROFT-----------SPORT--------------------AB
---1959
ALISON-----------------3-3.5", BIC-------------------------------OP
---1996---UG/BG---A---M
ALISTER CLARK--------26/40---2.75+", BIC-----------------LP
---1999--------SG----B---T
ALLGOLD, CLIMBING--CL---SPORT-----------------------MY
---1961--------BG
ALLGOLD-------------15/22---3", BIC-------------------------MY
---1958--6.2---VG----A---M
ALLIANCE------------17/25---2.75+"---------------------------DP
---1966---VG/BG----A
ALLOTRIA-----------17/25---FLAT---3", BIC----------------OR
---1958---6.5---VG-------M
ALMA------------------17/25---1.5-2.75", BIC------------------DR
----L
ALPENGRUSS---------------------------------------------------------
----1974
ALPENKONIGIN--------------------------------------------------MR
ALPINE GLOW-------------28---CUUPED---3-4", BIC-------OR
---1954--------VG---A---M
ALTE LIEBE-----------------17/25---2.75+"---------------------OP
---1983
ALTENBURG---------------17/25---2.75+"---------------------OR
---1977
ALVARES CABRAL----------------------------------------------MR
ALWAYS LOVE YOU---17/25---1.5-2.75", BIC--------------DY
---2000---7.4---7.1---UG---A--M
AMA--------------17/25---HT---2.75+", BIC---------------------OR
---1955-----VG/BG
AMANDA--------------25---HT---3.5"----------------------MY/OB
---1979----------UG
AMARANCHA-----------------------------------------------------AB
AMARILLO---------------------------------------------------------DY
---1994
AMAZONE----------------------------------------------------------MR
AMAZON------------------------------------------------------------OB
---1992
AMBASSADEUR BAERT----------------------------------------OP
---1964---------CG--------L
AMBASSADEUR NEMRY------17/25---2.75+"---------------DP
---1949---------VG---A
AMBER BEAUTY-------AARS--- 17/25---BIC----------------PB
---1962
AMBER NECTAR-----26/40---1.5-2.75", BIC-----------------AB
---1996---------UG---A
AMBER QUEEN-------AARS---40---2.75+"-------------------AB
---1983---6.8---6.6---A---L
AMBER WAVES-------26/40---3.5-4", BIC--------------------AB
---1999---7.0---6.0---BG---A---T
AMBERLIGHT---------26---3.5-4", BIC------------------------YB
---1961---7.4---VG---B---L
AMBRA------------20---2.75+"-----------------------------------OB
---1982-----UG/BG---A
AMBROSIA----------7/10---2.5-3"-------------------------------OB
---1962-----VG/BG
AMELIA FLEMING---------5---1.5-2.75", BIC---------------MP
---1995----------UG---A---T
AMELIA REY COLACO---------------------------------------------
---1960
AMERICAS JUNIOR MISS-------17/25---1.5-2.75"---------LP
---1964---8.2---BG---A---M
AMI CLEMENT----------------------------------------------------DP
AMI LEON CHENAULT---------BIC---------------------------MR
---1929
AMI RENE BADEL----------36---HT---------------------------MR
---1961---7.0----------B
AMIGO ROGER SUCRET-------------------------------------------
---1970
AMIGO------------17/20---CUPPED---3-3.5"------------------MR
---1951----------BG---A---M
AMOR----------------22---1.5-2.75"------------------------------MP
---1957-----VG/BG
AMORE---17/25---1.5-2.75"--------------------------------------MP
---1957-----------------A---M
AMOROSA--------------------------------------------------------------
AMOURS DE SAVEMEM----------------------------------------RB
---1999
AMSTERDAM-------------12/15---2.5"--------------------------OR
---1972----------VG
AMY BROWN-------------28---2.5-3"----------------------------OB
---1979----------BG
AMY POWELL------------28---2.5-3"----------------------------OP
---1996-----------------A
AMY VANDERBILT------70---3" BIC---------------------------M
---1956---6.5---BG---A
AMYS DELIGHT---------------------S----------------------------PB
---2001---------BG
AMY------------------38---HT---HT---2.5-3", BIC-------------MP
---1954---6.8---CG---A---M
ANABELL-----------30---HT---4"--------------------------------OB
---1972---7.7---------A
ANDALUSIEN-----34----3", BIC--------------------------------MR
---1976---------BG---A
ANDENKEN AN FRANZ HEINSOHN---17/25---1.25"-----DR
---1938------UG---A
ANDENKEN AN HERMANNN-------12/16---2.75+"--------OR
---1959
ANDREA JONES---------G/D---17/25---BIC-------------------PB
---2003----------UG---A---T
ANDREE SOPHIE GIRARD------17/25------------------------MR
---1958
ANETTE-----------------------------------------------------------------
---1978
ANGEL CREAM------SPORT-------------------------------------W
---1989
ANGEL FACE -------AARS---30---HT---3.5-4"----------------M
---1968---7.7---BG---B
ANGEL FACE, CLIMBING---CL---------------------------------------1981
ANGELAS CHOICE---------15---3"----------------------------PB
---1973-----VG/UG
ANGELA------------28---2.5", BIC-------------------------------YB
---1957---6.7---VG---A
ANGELICA----35---CUPPED---1.5-2.75", BIC / S------------DP
---1984----------BG
ANGELIKA----------------------------------------------------------DP
ANGELIQUE---------------20/25---2.5-3", BIC-----------------OP
---1961--------SG-----A
ANGIE HEATWOLE-----------15/25---1.5-2.75", BIC-------MP
---1996-----------------A---M
ANGOLA------------------------------------------------------------DR
ANGUS MacNEIL-----BIC----------------------------------------OP
---1967---------SG
ANIMO---------------12/16---2.5", BIC---------------------------YB
---1962---------BG
ANITA STAHMER----------------27---HT---2.5"---------------DP
---1973---------BG---A
ANITA--------------43---2.75+", BIC-----------------------------PB
---1982-------A---M
ANJA------------------------------------------------------------------ OP
---1993
ANJOUR FESTIVAL----------------------------------------------MR
ANN ABERCONWAY---------------20---3"--------------------AB
---1976-----------------A
ANN COX CHAMBERS-----G/D---17/25---2.75+", BIC-----W
---2002---------BG---A---T
ANN ELIZABETH-----------15---2.75+", BIC-----------------MP
---1962---------VG---A---T
ANN REILY-----G/D---41+---2.5-3", S-------------------------MP
---2004--------CG---------M
ANNA AGUILERA---------------------------------------------------
---1972
ANNA LIVIA-------------20---HT---2.75+", BIC---------------OP
---1985---7.5---7.8---A
ANNA LOUISA-----------17/25---2.5"---------------------------LP
---1967----BG/VG--------L
ANNA MILAM---------26/40---HT---3-4", BIC---------------MP
---2000---------BG---B---T
ANNA MULLER-IDSERDA-------17/25---1.5-2.75"---------MP
---1966----------------B
ANNA WHEATCROFT--------4/11---4", BIC-----------------OR
---1958---8.1---VG---A---M
ANNABELLE KOLLE---------------------------------------------DP
---1993----VG/UG
ANNE COCKER-----------36---2.5"------------------------------OP
---1970
ANNE HARKNESS---------28---1.5-2.75", BIC---------------AB
---1979---6.8
ANNE MARIE LAING-----26/40---OPEN---2.75+", BIC----LP
---1998---------UG---A
ANNE McDONALD-------30---HT--2.75+", BIC--------------PB
---1992---------UG---A---T
ANNE METTE POULSEN------17/25---2.75+"---------------MR
---1935---7.6---VG---A---T
ANNE SCRANTON--------17/25---1.5-2.75"-------------------LP
---1971-----VG/UG
ANNEMARIE VAN ONSEM-------12/16---1.5-2.75"--------MR
---1971-----BG/VG
ANNERE DOORENBOS----------SPORT-----------------------PB
---1956
ANNEROSE---------------------------------------------------------OR
---1976
ANNIE BEAUFAIS-------------------------------------------------OR
---1962
ANNIE LAURIE----------------------------------------------------MR
---2001
ANNIE RED--------------------------------------------------------DR
ANNIVERSARY----------------------------------------------------LP
---1998
ANTHEA FORTESCUE--------17/25---1.5-2.75", BIC -------PB
---1992---------SG---A---L
ANTHONY MEILLAND------26/40 2.75+", BIC------------MY
---1994---7.0---6.6---BG-------M
ANTIKE-----17/25---1.5-2.75"------------------------------------YB
---1966
ANTIQUE ARTISTRY--------------------------------------------AB
---2000
ANTIQUE LACE----------25/35---1.5-2.75"--------------------MP
---1991---------BG-------M
ANTIQUE SILK------------20---HT---2.75+"--------------------W
---1985---6.4---BG---A--M
ANTIQUE---------------BIC----------------------------------------RB
---1967---6.3---BG
ANTONELLA FINESCHI--------------------------------------------
---1985
ANTONIA------------17/25---HT---2.75+", BIC-----------------W
---1979----------BG------L
ANUSCHKA--------------23---2.75+"----------------------------OR
---1978-----BG/UG
ANUSHEH----------26/40---1.5-2.75", BIC---------------------RB
---1992----------UG---A--M
AORANGI---------41---HT---3"-----------------------------------W
---1979----------UG---A
APACHE TEARS--------17/25---HT---1.5-2.75"---------------RB
---1971---7.1---VG---A
APACHE WELLS--------17/25---HT---1.5-2.75"--------------RB
---1971----VG/BG---A
APERITIF----------------17/25---HT---1.5-2.75"----------------PB
---1972---7.0---BG---A
APOTHEOSE--------------------------------------------------------YB
---1963----------VG
APPLEDORE-----24---1.5-2.75"----------------------------------LP
---1962----------VG---A
APPS ROSE----------------------------------------------------------AB
---1996
APRICOT BRANDY----------22---4"----------------------------AB
---1972-----------------A
APRICOT CHINA--------------------------------------------------MR
---1996
APRICOT GEM-----------------------------------------------------AB
---1978
APRICOT MOON--------------------------------------------------AB
---1995
APRICOT NECTAR---------AARS---17/25---4-4.5"----------AB
---1965---8.0---BG---B---M
APRICOT SUMMER----------------------------------------------AB
---1995
APRICOT WINE----------12--------------------------------------AB
---1978----------CG-------L
APRIKOLA---------------------------------------------------------AB
---2000
APRUTINA---------------18/25---2"----------------------------------
----1969
APSARA------------------12/16---1.5-2.75"--------------------------
----1966-----VG/UG
AQUARELLE-----------18/25---FLAT---2"---------------------DY
---1969----------VG---A
ARABESQUE-------------10---3"----------------------------------LP
---1978----------VG---A
ARABIAN NIGHTS--------25---HT---4.5"----------------------OP
---1963----------VG---A
ARABIA-------------------------------------------------------------OB
---1986
ARAKAN----------17/25----BIC-----------------------------------LP
---1968-----------------A
ARAMIS----------12/16---3", BIC--------------------------------DR
---1964-----------CG-------L
ARBELLE------------------------------------------------------------OR
ARCADIA SUNRISE--------17/25---HT--- 4.5", BIC---------OR
---2001---------UG---A---T
ARC-EN-CIEL-------------65/70---BIC---------------------------PB
---1961----------------------M
ARCTIC PINK--------CUPPED---3", BIC-----------------------LP
---1966----------VG---B
ARDENTE---------CL----------------------------------------------OP
ARDS BEAUTY----------20---HT---2.75+", BIC-------------MY
---1984-------BG-----A---M
AREND HERWIG---------17/25---1.5-2.75"--------------------OB
---1966
ARGENTINA--------------12/16-----------------------------------AB
---1941--------------A
ARIA-------------17/25---2.75+"-----------------------------------OP
---1957-------BG----------L
ARKANSAS SUNSHINE-------30--1.5-2.75", BIC-----------MY
---1962---VG/BG
ARKAVATHI-------------------------------------------------------DP
---1971
ARLETTE------------------------------------------------------------RB
---1996
ARPEGGIO-------------12/18---3", BIC--------------------------DP
---1961---6.5---CG---A---L
ARROMANCHES--------------------------------------------------OP
---1975
ARTHUR BELL, CLIMBING-----------------------------------MY
---1979
ARTHUR BELL-----------15---2.75+"--------------------------MY
---1965---7.5---VG---B---T
ARTHUR MERRILL------17/25---HT---1.5-2.75", BIC-----MR
---2001----------BG---A---M
ARTISTIC------------------10/15---2"----------------------------OB
---1971------------------A
ARUNIMA------------------50---2--------------------------------DP
---1975-----BG/CG
ASBACH------------------------------------------------------------OR
---1960
ASCOT BONNET--------17/25---1.5-2.75", BIC---------------M
---2000----------BG---B---M
ASCOT----------18---4", BIC-------------------------------------AB
---1962-----------------------L
ASTRID SPATH STRIPED---------------------------------------RB
---1933
ASTURIAS----------40---2.75+", BIC---------------------------RB
---1956-----------VG
ATALANTE---------2.75+"---------------------------------------MR
---1958----------VG
ATCO ROYAL-----------------------------------------------------MY
---1994
ATHLONE---------OPEN---BIC----------------------------------YB
---1965-----------------A
ATHOS---------28---2.75+"----------------------------------------OB
---1965--------BG
ATLANTIC CITY---------26/40---2.75+", BIC / S-------------RB
---1995-------CG-----A---T
ATLANTIC STAR---------HT---BIC-----------------------------OP
---1993---7.6---7.4--------L
ATLANTIC----------12/16---1.5-2.75", S------------------------OR
---1959-----------------A
ATLANTIS PALACE----------------------------------------------DY
---1999
ATOMBOMBE--------28---2.5", BIC----------------------------MR
---1953---5.0---VG/BG
ATTRAKTION---------17/25---BIC-------------------------------OP
---1963---6.7---VG/BG
AUDREY MARIE-------26/40---1.5-2.75", S-------------------MR
---1994---------VG---A
AUDREY McCORMACK------26/40---3", BIC----------------AB
---1999----SG/BG---A---M
AUDREYS ROSE---------------17/25-----2.25", BIC-----------M
---2002-------VG-----B---L
AUGUST SEEBAUER---------17/25---HT---2.75+", BIC----DP
---1944-------VG
AUGUSTE KORDES---CL-----SPORT---BIC-----------------MR
---1928-------VG--------T
AUNTY DORA----------12/16---1.5-2.75", BIC ----------------M
---1970----------------A---L
AUNTY LIL----------15/25---1.5-2.75", BIC--------------------YB
---1995--------UG---A---M
AURIU DE CLUJ------15---1.5-2.75"----------------------------YB
---1984---------------A
AURORA-------------17/25-----------------------------------------OP
---1941----------------A
AURORA------------------------------------------------------------MY
----8.0
AURORE-------------------------------------------------------------OR
AUSTRALIA FAIR---------G/D---17/25---1", BIC-------------PB
---2001---------CG---A---M
AUSTRALIAN GOLD--------20---BIC--------------------------AB
---1980---7.0---BG---A
AUSTRIANA--------------4/11---1.5", BIC----------------------MR
---2000---------CG--------L
AUTUMN DAYS---------------------------------------------------OB
AUTUMN HUES---------35---HT---3-3.5", BIC----------------OB
---1962---7.3---UG---A---M
AUTUMN SONG----------------------------------------------------PB
AUTUMN SPRAY-----------40---3" FLAT----------------------YB
---1964
AVALANCHE ROSE--------25---2.75+"------------------------MR
---1986
AVALANCHE--------------------------------------------------------W
---1991
AVIGNON--------------23---2"------------------------------------MY
---1974---------VG---A
AVOCET--------------13---2.75+", BIC--------------------------OB
---1983---------BG---A---M
AVRIL SHERWOOD------------18---3.5"----------------------MY
---1975---------UG---A
AYAORI-------------------------------------------------------------RB
AZEEZ--------------17/25---HT---1.5-2.75"---------------------OP
---1965---UG/CG
AZUR-------------------15-----2.5-3"-------------------------------M
---1967---VG/BG---B
BABETTE-----------------4/11---CUPPED---1.5"---------------M
---1969---VG/BG---A---L
BABY BIO----------P---28---3"-----------------------------------DY
---1977---------BG---A
BABY BLAZE-------------33---3", BIC-------------------------MR
---1954---7.6---BG---A---M
BABY CHATEAU-----------17/25---2.75+"--------------------MR
---1936---7.3---BG---A
BABY GIRL---------------------------------------------------------DY
---2001
BABY MAGIC------------------------------------------------------PB
---1999
BABY SYLVIA-----------25/30---3"-----------------------------OP
---1959---6.0---VG
BABY TALK-----------P---26---HT-------------------------------M
---1980---6.9------6.7CG---A---M
BAD BIRNBACH---------------------------------------------------DP
---1999
BAD FUSSING----------23---CUPPED---2.75+", BIC-------MR
---1980-----UG/BG---A
BAD LANGENSALZA-------------17/25---2.75+"-------------PB
---1954----------------A
BAD PYRMONT-------------40---4"-----------------------------OR
---1976---------BG---A
BAD SALZUFLEN-------------------------------------------------MP
BAD WORISHOFEN------------18---CUPPED---2.5"--------MR
---1972---------BG---A
BADENER GOLD--------------------------------------------------OB
---1974
BADHEERA--------------35---HT---4"---------------------------OR
---1976----VG/UG---A
BAHAMA---------------12/16--------------------------------------DR
---1968----------VG---B---L
BAHIA----------AARS---17/25---CUPPED---1.5-2.75"-------OB
---1974---7.1---BG---A---M
BAHRS LIEVELING----------------------------------------------MR
---1950
BAILEY RED-------------------------------------------------------MR
BAKELS-----------------------------------------------------------------
---1980
BALADIN--------------------------------------------------------------- -
BALALAIKA-----------17/25--------------------------------------DR
---1978---------BG---A---L
BALLADE------------25---HT---BIC-----------------------------OP
---1960--------BG
BALLADE-----------------------------------------------------------LP
---1991
BALLERINA-----------17/25---2.75+"--------------------------MY
---1941----------------A
BALLINDALLOCH----------26/40---2", BIC-------------------DP
---1997------BG-----A---M
BALTIK----------17/25---2.75+"-----------------------------------M
-----A
BAMBI-------------20/24---2-3", BIC----------------------------MP
---1962--7.4---BG---A---L
BAMBINIA-----------12/16---2.75+", BIC ----------------------W
----1962
BAMBULA-------------28---5"------------------------------------OP
---1970----------------A
BANBRIDGE---------3"---BIC------------------------------------PB
---1967----------------A
BANGOR------------24---3.5"-------------------------------------OR
---1972----------------A
BANGSBO----------------------------------------------------------MP
BANJARAN-------------17/25---1.5", BIC----------------------YB
---1969---------CG---A
BARBARA CARRERA--------------------------------------------OP
---1994
BARBARINA---17/25---2.75+"----------------------------------YB
----1965----------------A
BARBECUE---30---FLAT---4", BIC---------------------------MR
---1961---------BG---A
BARBIE---35/40---HT---2"---------------------------------------MP
---1977--------UG---A
BARNARDS MAGIC DAY---G/D---26/40---2.75+", BIC---W
---2003---------BG---A---M
BARONESSE MANON----------3-------------------------------MP
---1938---6.5---BG---A---M
BARRIE------------17/25---CUPPED---1.5-2.75"---------------PB
---1973---------UG---A
BARUNKA---------------41+---2.75+"---------------------------OP
----1983
BASILDON BELLE----------SPORT----------------------------OR
---1964
BAYERNGOLD---------------------------------------------------MY
---1990
BEACHCOMBER------------6/14---1.5-2.75"--------------------R
---1986----------BG---A
BEATRICE SAMZIN----------------------------------------------MP
---1970
BEATRICE------------17/25---BIC--------------------------------DP
---1968---6.7-----------A
BEAULIEU ABBY-------------17/25---4"-----------------------AB
---1964----------VG---A
BEAUTIFUL BRITAIN-------------20---BIC-------------------OR
---1983---7.4---6.6---BG---A
BEAUTIFUL DREAMER----------35---3-3.5"-----------------OB
---1977-----------------A
BEAUTY CREAM--------2.75+"----------------------------------W
---1956----------UG---A
BEAUTY QUEEN--------17/25---1.5-2.75"--------------------MP
---1984----------UG----B
BEBE LUNE--------------------------------------------------------MY
---1965
BECCA GODMAN-------------------------------------------------PB
---1998
BEL AMI------17/25---2.75+", BIC-----------------------------MR
---1958----------BG
BELINDA-----17/25---1.5-2.75"---------------------------------OB
---1971---7.5---BG---A---M
BELLA DONNA-----17/25---M/F---1.5-2.75", BIC----------MR
---1964----------BG---A
BELLA ROSA-----------34---M/F---2.75+"---------------------MP
---1981---7.8----------A
BELLA WEISS-------------------------------------------------------W
---1989
BELLA---------------------------------------------------------------MR
---1995
BELLE CREOLE-----BIC-----------------------------------------RB
---1958---VG/UG
BELLE DE JUIN------------------------------------------------------
---1974
BELLE DE PARME---------17/25---HT-------------------------MP
---1962----CG/SG
BELLE OF PUNJAB---------17/25---HT------------------------MP
---1965----------------A
BELLE OF TASMANIA-------17/25---HT---1.5-2.75"-------OR
---1968---------CG-------T
BELLINA----------40---HT---2.5", BIC--------------------------OP
---1959---7.6---CG---A---M
BELLISIMA--------26/40---2.5", S-------------------------------OB
---1999-------UG-----A---M
BELLONA-------------27---3-------------------------------------MY
---1976----VG/UG---A
BELVEDERE----------17/25---2.75+"---------------------------DR
---1928
BENDIGOLD----------------17/25---3"---------------------------OR
---1979----------------A
BENEXUL-------------12/16---------------------------------------DR
---1949---------------A
BENGAL TIGER--------8/14---3-4.5", S------------------------OR
---2000------SG-----A---T
BENGALI-----------17/25---1.5-2.75"---------------------------OR
---1969---------------------L
BERENICE----------------------------------------------------------DR
---1979
BERGERS KORALLE------------------17/25---2.75+"---------OP
---1956
BERGFEUER SUPERIOR--------------------------------------------
---1968
BERGFEUER-----------------------------------------------------------
----1959
BERLEBURG-------------------------------------------------------DP
---1994
BERLINER LUFT--------------------------------------------------OB
---1985
BERND CLUVER-----------2.5-3"-------------------------------MP
---1974
BERNINA------------------------------------------------------------W
----1979
BEROLINA------------24---HT---3.5"---------------------------MY
---1977---UG/VG---A
BERSTEIN- ROSE-------------------------------------------------DY
---1987
BERSTEIN-------17/25----1.5-2.75"-----------------------------DY
---1987
BERYL WEARMOUTH--------19---4.5"-----------------------MP
---1973
BETANO BEACH-------17/25---HT---1.5-2.75"---------------RB
---1966----BG/UG
BETH---------SPORT-----------------------------------------------LY
---1966
BETSY MaCALL--------25/30---3-3.5", BIC-------------------OP
---1956---7.7---BG---A---M
BETT, S LEMON CREAM-----26/40---HT---1.5-2.75"------LY
---2003---------UG---A---T
BETT, S WHITE SENSATION---41+---HT---2.75+", BIC---W
---2003---------UG---A---T
BETTS CARDINAL SPIRIT-----G/D---15/25---BIC--------DP
---1999----------UG---A---M
BETTS SNOW DANCER-----G/D---26/40---2.75+", BIC---W
---1999----------CG---A---T
BETTY BOOP---AARS-----G/D---4/11---2.75+", BIC-------RB
---1999---8.0---BG---A---T---(11/18)
BETTY DRIVER---P---12/16---2.75+", BIC-------------------PB
---1982----------BG---A---L
BETTY FREE--------25---BIC-----------------------------------MP
---1950-----------VG---A
BETTY HARKNESS----------------------------------------------OB
---1998
BETTY PRIOR, CLIMBING---------5---1.5-2.75"------------MP
---1955-----SG/UG----A
BETTY PRIOR---5---CUPPED----------1.5-2.75", BIC------MP
---1935---8.2---BG----A---T
BEVERLEY ANN -------------17/25---1.5-2.75", BIC--------RB
---2000----------BG---A---M
BEVERLEY STOOP---1-------5/25---1.5-2.75", BIC--------MR
---1998-----VG/CG---A---M
BHAGMATI-----------15/20---CUPPED---2.5-3"-------------MR
---1977-----VG/BG---A
BIBICHE, CLIMBING------------------------------------------------
---1980
BIBICHE------------------------------------------------------------OB
---1974
BICENTENNIAL--------17/25---HT---1.5-2.75"--------------RB
----1975-----VG/UG---A
BIENKIE------------------------------------------------------------OP
---1995
BIG BANG--------13---CUPPED---BIC------------------------OR
---1980----------BG
BILITIS--------------------------------------------------------------OR
---1969
BILL BEAUMONT-------20-------------------------------------MR
---1982----------BG---A
BILL GRANT---------4/11-----------------------------------------W
---2001
BILL SLIM---------30---2.75+", BIC / S------------------------OP
---1987-----BG/SG---A
BILL WARRINER------26/40---HT---3.5-4", BIC------------OP
---1998---7.8---7.7---CG---A---T---(12/15)
BIRD OF FIRE---------25/30---HT---2.75+", BIC / S---------YB
---1992----------BG---A--M
BIRICHINA------------------------------------------------------------
BIRMINGHAM BOENER---------SPORT----------------------W
---1975
BIRMINGHAM POST----------17/25---2.75+"-----------------DP
---1968----------VG---B
BISHOP ELPHINSTONE-------26/40---1.5-2.75", BIC------DR
---1993-----UG---A---T
BLACK BESS-------------12/16---HT----BIC-------------------DR
---1939----BG---A
BLACK ICE------------24---4"------------------------------------DR
---1971-------------
BLANCA-------------17/25---2.75+", BIC------------------------W
---1965----------VG---A
BLANIK--------------17/25---1.5-2.75"--------------------------DR
---1964
BLASTOFF----------15/25---1.5-2.75", BIC--------------------OB
---1993---7.6---7.0---UG
BLAUWE DONAU---------10/12---3"----------------------------M
---1971----------BG---B
BLAYDON RACES---------------2.5"---------------------------YB
---1976----VG/UG---A---T
BLAZE AWAY-------------7---3.5"------------------------------OR
---1979------VG/BG--A
BLICKFANG----------------41+----------------------------------DR
BLOEMFONTEIN-------------------------------------------------OB
---1988
BLOHM & VOSS------------BIC---------------------------------OR
BLONDE BOMBSHELL--------26/40---1.5-2.75", BIC-----MY
---1995--------UG---A---M
BLONDIE---------25---HT---1.5-2.75", BIC / S---------------MY
---1987----UG/BG---A---M
BLOOMFIELD ABUNDANCE-------12/25---SPORT--------LP
---1920---7.7
BLOOMSDAY---------28---BIC---------------------------------OB
---1981----VG/UG---A
BLOSSOM HILL---------10---2.5", BIC------------------------OB
---1957----UG/BG---A
BLUE ANGEL--------15/25---1.5-2.75", S-----------------------M
---1992---------BG---A---M
BLUE BAJOU--------------------------------------------------------M
---1993
BLUE CHIP--------G/D---20---G/D---.5-2.75"------------------ M
---1983----UG/BG---B
BLUE JAY---------------------------------------------------------------
BLUEBERRY HILL-------4/11---2.75+", BIC-------------------M
---1999---7.8---7.1---UG---A---T
BLUESETTE----------50---FLAT---2", BIC----------------------M
---1984----------BG---B
BLUHENDES BAROCK------------------------------------------MP
---1997
BLUSHING BRIDE-------------------------------------------------LP
---1998
BLUSHING JUNE------6/14---2.75+"---------------------------OR
---1996----------------------M
BOB COLLARD---------11---1.5-2.75", BIC / S---------------MR
---1986---BG/UG----A---M
BOB GREAVES----------------------------------------------------OB
---1998
BOBBIE LUCAS----------3.5"---BIC----------------------------OP
--1967---6.9----------A
BOBBY DAZZLER-------------50---3"--------------------------AB
---1972-----------------A
BOBINO-------------------------------------------------------------MR
BOCCACCIO--------------30/40---2.75+", BIC-----------------OR
---1963
BOLCHOI------------------------------------------------------------RB
---1999
BOLERO------------17/25---2.75+"-------------------------------OB
---1958----------VG
BON-BON------AARS---12/16---2.75+"-------------------------PB
---1974---7.5---BG---A
BONEYARD YELLOW------------------------------------------MY
---1996
BONFIRE NIGHT--------------19---3.5"-------------------------RB
---1971---7.0---------A
BONICA----------70---HT---1.5-2.75", BIC--------------------OR
---1958---VG/BG----A
BONNIE HAMILTON---------26---2.5"-------------------------OR
---1976-----------------A
BONNIE JACK--------26/40---HT---3-4", BIC-----------------LY
---2000--6.4---6.2---UG----A---T
BONNIE MAID----------17---3"-----BIC------------------------PB
---1951---BG/VG
BONNIE PINK---35/40---HT---4.5"-----------------------------LP
---1964---6.4---BG---A---L
BORDER BEAUTY----12/16---2.5", BIC ---------------------MR
---1957---VG/UG
BORDER CORAL, CLIMBING----------------------------------OP
---1966
BORDER CORAL----12/16---2/2.5", BIC ----------------------OP
---1957--------SG
BORDER GEM20---2.5-3", BIC-------------------------------PB
---1961---8.4--CG---A---L
BORDER GOLD----41+---1.5-2.75"-----------------------------DY
---1966---4.6-BG----A
BORDER PRINCESS---22---HT---3"----------------------------OP
---1951-----VG
BORDER QUEEN----9---2.5", BIC------------------------------OP
---1951---7.6---VG/CG---M
BORDURA DE NEA---------8---1.5-2.75", BIC-----------------W
---1994
BORDURE BLANCHE----25---3-4"------------------------------W
---1997
BORDURE DOR--------------------------------------------------MY
BORDURE MAGENTA---------------------------------------------------1994
BORDURE ROSE #2----------------------------------------------MP
---1993
BORDURE ROSE-----------25---CUPPED---3-4"--------------PB
---1986----------CG-------L
BORDURE VERMILLON----------------------------------------RB
---1990
BORDURELLA-----------------------------------------------------PB
BOTANICA-----------26/40---2", BIC----------------------------PB
---1998--------BG----B---T
BOUNTIFUL--------------33---HT---3"--------------------------PB
---1972--------VG----A
BOUQUET ROUGE----------45---2.75+", BIC----------------MR
---1963
BOUQUET-------------33-------CUPPED------------------------DP
---1940---VG/CG---A---L
BOWLED OVER---------P---17/25---1.5-2.75", BIC----------AB
---2001-------CG----A---M
BRADLEY CRAIG--------P---G/D15/25---1.5-2.75"----------OR
---1986-------BG----A
BRASERO----------------------------------------------------------MR
BRASS BAND--------41+---2.75+", BIC-----------------------AB
---1993--7.8---7.4---UG---A---T
BRAVADO-----------26---HT---1.5-2.75", S--------------------DR
---1987-------UG----A
BRAVE HEART---------15/25---HT---2.75+", BIC-----------MP
---1996-------UG----A---T
BREGINA----SPORT----------------------------------------------OR
---1965
BRENDA OF TAMANIA--------17/25---HT---2.75+"---------W
---1971---BG/UG---A
BRENTWOOD STYLE--------17/25---1.5", BIC--------------AB
---2001---UG/BG----A---T
BRIDAL PINK------------30/35---HT---1.5-2.75"--------------MP
---1967---8.2---UG---A
BRIDAL SHOWER------26/40---4", BIC------------------------LP
---1998---7.7---7.8---A---T
BRIDAL VEIL------------75/80---2.5", BIC---------------------LY
---1954--------VG/BG---------B
BRIDAL WHITE---------17/25----CUPPED---------------------W
---1970---9.0---UG/VG
BRIDES WHITE---------17/25---1.5"----------------------------W
---1968
BRIDGET------------------------------------------------------------DP
---1993
BRIDGWATER PRIDE-------20---1.5-2.75"-------------------OP
---1982----CG--------A---L
BRIGADERIO FRANCA BORGES-----------------------------OR
---1960
BRIGHT EYES---------17/25---1.5-2.75"-----------------------OR
---1983---5.9---BG---A---L
BRIGHT GARBS--------2---2.5"---------------------------------OR
---1977-----------------A---L
BRIGHT SMILE------------P---15--------------------------------MY
---1980----------BG---A---M
BRIGITTE JOURDAN----------17/25---2.75+"----------------OR
---1960----VG/BG---A
BRILLIANCE----------P---50---CUPPPED---2"---------------OR
---1958-----------------A
BRILLIANT KING---------32---4"------------------------------MR
---1961-----------------A
BRILLIANT PINK ICEBERG--------17/25---2.75+", BIC---PB
---1999---7.7---6.9---UG---A---T
BRILLIANT STAR---------12/20---2.5-3", BIC---------------MR
---1965---------VG
BRIOSA--------------------------------------------------------------YB
BRISBANE BLUSH------------------------------------------------PB
BRISE PARFUMEE---------17/25---BIC-----------------------MR
---1950---------VG----B
BROADWAY-------------------------------------------------------DP
BRONZE BEAUTY---------24---OPEN---4"-------------------OB
---1974---------BG---A
BROWN STUDY--------15/25---2.75", BIC----------------------R
---1999---7.0---SG---A---T
BROWN VELVET---------35---1.5-2.75"-------------------------R
---1983---7.0---6.1---A---L
BROWNIE--------38---CUPPPED---3.5-4", BIC----------------R
---1959---6.4---CG---A---L
BRUNETTE--------25---1.5-2.5"---------------------------------YB
---1970
BRUSHSTROKES-------26/40---3.5", BIC --------------------YB
---1999--------UG----A---M
BRUUN------------------------------------------------------------------- ---1995
BRYAN-------17/25---HT---3", BIC-----------------------------OB
---2001--------SG---A---M
BUENOS AIRES-------17/25---------------------------------------R
---1957--------------------L
BUGLE BOY---------35---1.5-2.75", BIC-----------------------DY
---1988---7.5---7.6---A
BUISMANS GLORY------4/11---1.5-2.75"-------------------MR
---1952
BUISMANS GOLD-----------------------------------------------DY
BUISMANS TRIUMPH-------13---2.75+"-------------------- MP
---1952---------VG
BUKAVU---------4/11----------------------------------------------RB
---1998
BURMA STAR----------22---3.5"--------------------------------AB
---1974----------------A
BURNING GOLD--------SPORT---------------------------------OB
---1990
BURNT ORANGE-------SPORT---------------------------------OB
---1973
BUSY LIZZIE------------12---2----------------------------------MP
---1971---------------A
BUTTERFLY KISSES------4/11--1.5-2.75", BIC-------------MY
---1999---8.3---8.1---SG---A--M
BUTTERFLY WINGS-------12---4-4.5", BIC------------------PB
---1976----------------A
BUTTERMILK SKY------G/D---26/40---1.5-2.75", BIC-----AB
---2002---------UG---B--M
BUZBY----11---1.5"------------------------------------------------OR
---1976---------BG---A---L
BY APPOINTMENT---------22---1.5-2.75", BIC-------------- AB
---1989---7.0---6.8---A---M
CABARET----------35/40---2.5", BIC----------------------------OR
----1963-------BG/UG
CADETTE----------35---CUPPPED----2"-----------------------AB
----1971----------UG---A
CAFE---17/25---BIC-------------------------------------------------R
-----1956---6.5---VG-------L
CAIRNGORM-----25---2.5"--------------------------------------OB
---1973----------------A
CALICO STAR---25/30---HT---4"-------------------------------YB
---1977--------UG---A
CALIENTE---17/25---HT---1.5-2.75"---------------------------DR
---1974---VG/BG----A
CALLIOPE----------------------------------------------------------AB
---1998
CALYPSO-----------18---CUPPED---3-3.5", BIC--------------OR
---1957---7.5---BG---B---M
CAMELEON----------22/27---BIC-------------------------------YB
---1961----UG/BG---B
CAMELIA-----------1.5-2.75"---BIC-----------------------------DP
--1953----------------------M
CAMELIAROSE----------G/D-------------------------------------LP
---1960------UG
CAMILLE PISARRO----------------------------------------------YB
---1996
CAMISOLE-----------26/40---4, BIC----------------------------AB
---2000------UG-----A---T
CANADIAN CENTENNIAL--------17/25---1.5-2.75"--------OR
---1965------VG------A
CANADIAN DREAM----------4/7---3, BIC---------------------M
---1997-------BG-----A---T
CANBERRA ROSE----------26/40---1.5-2.75", BIC-----------PB
---1999-------UG-----B---T
CANCAN SWIRL----------G/D---26/40---1.5-2.75", BIC------M
---2002-------UG-----A---M
CANCAN-------17/25---1.5"--------------------------------------OB
---1969-----------------A
CANDEUR--------30---HT---3.5"----------------------------------W
---1978--------UG----------L
CANDY FLOSS-------40---3", BIC-------------------------------LP
---1959--------BG-----A
CANTATE--------SPORT------------------------------------------OB
---1959
CANZONETTA-------10/12---2.75+", BIC---------------------OR
---1953----VG/BG---A
CAPEL MANOR COLLEGE-------10---1.5-2.75", BIC-------OP
---1990-----------------A---T
CAPER--------25---OPEN---2-2.5"-------------------------------DR
---1976----------UG---A----
CAPITOLE--------12/16---2.75+", BIC--------------------------DP
CAPPA MAGNA--------8/10---CUPPED----4", BIC----------MR
---1965----------UG--------T
CAPRICORN--------16---2", BIC--------------------------------RB
----1961----------VG---A
CAPRIE--------38---3-3.5", BIC----------------------------------OP
---1956---7.4---BG---A
CAPRIOLE-------12/16---2.75+", BIC --------------------------MP
---1956------VG/BG--------L
CAPTAIN COOK--------10---4"----------------------------------OP
---1977------------------A
CAPTAIN KILBY--------12/16-1.5-2.75", BIC----------------MR
---1955----------VG
CARABELLA-------4/11---BIC----------------------------------YB
---1960-----------BG---A
CARDEAL DE ROHN---------12/16-----------------------------DR
---1957
CAREFREE---------1.5-2.75"---BIC------------------------------DP
---1959
CARING FOR YOU-------CL41+---1.5", BIC---------------PB
---1997-----------SG----A---12
CARL KEMPKES-------12/16OPEN---2.75+", BIC--------DR
---1937----------VG-----A
CARMAGNOLE------20/25---CUPPED---1.5-2.75"-----------W
---1991-------------------A---T
CARMEL BICE-------12/16---1.5-2.75", BIC------------------PB
---1959------------UG---B
CARMELITE-------------------------------------------------------DY
CARMEN--------30---HT---1.5", S------------------------------DR
---1986------------BG---T
CARNAVAL DE RIO-----------BIC-----------------------------AB
---1982---6.4
CARNAVAL-----------26/40---2.75+"---------------------------RB
---1987--------BG
CAROL AMLING---------SPORT-------------------------------MP
---1953---6.4
CAROL ANN-------------42---1.5-2.75", BIC------------------MR
---1989------SG------A---M
CAROLE LOVETT------------17/25---1.5-2.75", BIC----------R
---2000---------------A---T
CAROLIN REIBERL----------------------------------------------DP
---1992
CAROLINE DAVISON--------16---1.5", BIC -----------------OP
---1980----------------A---L
CAROLINE EMMONS-------55/60---CUPPED---3.5"-------RB
---1962---VG/BG----B---T
CAROLINE PLUMPTON---------20/25---2.5"-----------------DP
---1975----------------A
CAROLYN DIANNE-----------17/25---1.5-2.75"--------------LP
----1964---6.8---CG---A
CARON----------38---3"--------------------------------------------PB
---1972----------UG---A
CARRY NATION---------12/16---1.5", BIC---------------------W
---1959---------VG---------L
CARTE ROSE----------------------------------------------------------LPCASCABEL--------45/50---FLAT----BIC-------------------RB
---1957----VG/CG
CASSANDRA------------------------------------------------------OR
---1998
CASTANET--------45---3.5"--------------------------------------OP
---1960---7.4---CG---A
CASTELLANA----------------------------------------------------------
CASTLE OF MEY--------15/25---1.5-2.75", BIC--------------OB
---1992---BG----------A---M
CATS MEOW-------29/31---3.5", BIC-------------------------OB
---1996---7.0---7.5---BG---A---T
CATHAY--------35/40---HT---3.5-4.5"--------------------------LY
---1957-----------CG---B
CATHEDRAL SPLENDOUR------------------------------------OP
---1995---7.7---7.3
CATHEDRAL-------AARS---22---4-5"-------------------------AB
---1975---7.7---BG---A
CATHERINE McAULEY-----------------------------------------DY
---1993
CAVALCADE, CLIMBING--------------------------------------RB
---1957
CAVALCADE---32---1.5-2.75"----------------------------------RB
---1950----------BG---B
CECILY GIPSON---35---CUPPED---1.5-2.75", BIC---------RB
---1991----------BG---A---T
CEDAR CREST COLLEGE---6/14---1.5-2.75", BIC---------DY
--1993-----------------A---T
CELEBRATION----------30---3", BIC---------------------------OP
---1961---7.6---VG---A
CELESTA MAHLEY-----------17/25---1.5-2.75"--------------PB
---1972-----VG/BG---A
CELESTIAL STAR-----------65---BIC--------------------------OR
---1965-----VG/CG
CELIA WALKER----------15/20---3", BIC---------------------RB
---1962----VG/CG---A
CELINE DELBARD-----------23---CUPPED---2.75+"-------OB
---1986-----BG
CENTENAIRE DE LOURDES---------15---3.5-4", BIC-----MP
---1958-----VG/BG
CENTENARY------------------------------------------------------MP
---1999
CENTENNIAL SWEETHEART---CL-----25---3.5", BIC---MR
---1959----------VG---B
CENTREX GOLD-------25---3"----------------------------------MY
---1975-----------------A
CENTURION---------30---3"--------------------------------------DR
---1975------------------A
CEREMONY--------G/D---40/50---CUPPPED---2.5"----------W
---1970---BG
CHACITA-----------17/25---1.5-2.75", BIC---------------------DR
---1947------VG/BG---A
CHALLENGE-------20---2", BIC--------------------------------DR
---1962------VG/BG---B
CHAMBA PRINCESS------------12/16---1.5-2.75"------------OP
---1969----------BG---A---M
CHAMBORD-----------17/25---2.75+", BIC--------------------MP
---1960-----------BG---A
CHAMOIS DORE---------17/25---1.5-2.75", BIC--------------AB
---2000----------BG---A---M
CHAMPAGNE PEARL--------------------------------------------AB
---1983
CHAMPION---------------------------------------------------------OR
---1988
CHANDRAMA---------25---BIC----------------------------------W
---1980----------SG---A
CHANDELLE------------17/25--1.5-2.75", BIC-----------------LP
---1958---6.9---CG---B
CHANELLE---------20---HT---3", BIC--------------------------OP
---1959---6.7----------A
CHANTECLERC--------2.75+"----------------------------------MR
---1956----------BG
CHANTEFLEUR---------------------------------------------------OP
---1958
CHAPERON ROUGE-------41+---OPEN---1.5-2.75"--------MR
---1951-----VG/UG---A
CHARADE---------20/25---1.5", BIC----------------------------OP
---1965-----------------A
CHARADE--------20/25---HT---1.5", BIC----------------------DR
---1988----------BG---A---M
CHARISMA------AARS---40---HT---2-2.5"--------------------RB
---1977---6.9----------A
CHARISMA---------------------------------------------------------LY
CHARLES DICKENS-------16---3"----------------------------- OP
---1970-----------------A
CHARLES DILLON-------24---2.75+"--------------------------MP
---1970-----------------A
CHARLES EYCK--------------------------------------------------YB
CHARLESTON, CLIMBING-------------------------------------YB
---1966
CHARLESTON----------20---3, BIC----------------------------YB
---1963---8.1---CG---A
CHARLIE MaCARTHY-------28---1.5-2", BIC-----------------W
---1955---6.1---CG---A---L
CHARLOTTE ANNE--------5---1.5-2.75", BIC-----------------M
---1993---8.2---8,1---SG---A---M---(9/11)
CHARLOTTE IVES---------4/11---1.5-2.75", BIC-------------PB
---1965-----CG/BG---A
CHARLOTTE WHEATCROFT-----4/11---2.75+", BIC-----MR
---1957-----VG------------T
CHARME DE PARIS------------------------------------------------------1979
CHARMING MAID------------5/6---4-4.5", BIC---------------OB
---1953-----------------A
CHARTER 700-----------------------------------------------------MY
---1993
CHATEAU DE BAGNOIS----------------------------------------LP
----1997
CHATEAU DE FILAIN-------------------------------------------OP
---1994
CHATEAUROUX--------------------------------------------------OR
CHATELAINE-------------32---HT---3", BIC-------------------OP
---1957--------VG---A
CHATTERBOX----------16---2"----------------------------------OB
---1973--------------------L
CHATTER, CLIMBING------------------------------------------MR
---1960
CHATTER---------14---1.5-2.75", BIC--------------------------MR
---1947---7.0--CG---A---L
CHEER------17/25---2.5", BIC / S-------------------------------MP
---1941---6.9---------A---M
CHEERFUL CHARLIE-------------------------------------------MR
---2004
CHEERFULLY PINK-----------12/16---2.5", BIC-------------OP
---2001---VG/UG--------T
CHEERFULNESS------------8---BIC-----------------------------OP
---1981------CG-----A---L
CHELSEA GOLD------------20---1.5-2.75"---------------------AB
---1985------BG-----A
CHERIE----------17/25---1.5", BIC------------------------------MP
---1931---------------A
CHERIE----------17/25---1.5", BIC-------------------------------OB
---1964---BG/VG---A
CHERISH---------AARS---28---HT---3", BIC------------------OP
---1980---7.6---7.7---SG---A---M
CHERRIO---------12/16---CUPPED---2.75+", BIC------------DP
---1937---6.2---CG---A---L
CHERRIO---------12/16--------------------------------------------MP
---1948----VG/BG
CHERRY BLOSSOM-------26---BIC----------------------------MP
---1964--------CG
CHERRY LIPS------------------------------------------------------DP
---1997
CHERRY RIPE -----------70---1.5"----------------------------- MR
---1949--------VG
CHESAPEAKE SUNSET ----------------------------------------OB
----1999
CHESHINE------------17/25---1.5"--------------------------------W
---1975----------------A---M
CHESHIRE CREAM---------50---2.5"----------------------------W
---1975----------------A---L
CHESS-------26/40---1.5-2.75", BIC------------------------------M
---1993---------UG-------L
CHESTER-----------15---3"---------------------------------------MY
---1976----------VG---A
CHIC PARISIEN--------17/25---BIC-----------------------------OP
---1956----------VG---A
CHIC-----------68---2.5", BIC--------------------------------------PB
---1993---7.4---VG---A---M
CHIHULY----------G/D17/25---2.75+", BIC--------------------RB
---2002----------BG---A---T
CHINATOWN---------17/25---2.75+", BIC---------------------DY
---1963---7.4----------B
CHINGARI------------17---3"-------------------------------------YB
---1976---VG/CG-----A
CHIPIE----------24---4"--------OPEN----------------------------AB
---1974---VG
CHIRIPA---26---BIC----------------------------------------------MR
---1957---UG/CG
CHITCHOR----------------------------------------------------------PB
---1996
CHLOE OF CHILDERLY-------G/D---12/16---3.5", BIC----OR
---2002---UG---------A---T
CHOBEE-------------26/40---1.5-2.75", BIC / S----------------MR
---1993---7.7---7.1---BG---A---M
CHORUS GIRL-----------16---HT---3", BIC--------------------OR
---1970-----------------A
CHORUS, CLIMBING--------------------------------------------OR
---1986
CHORUS------------35---4"----------------------------------------OR
---1977--------VG----A
CHOTA---------50---3.5"------------------------------------------OR
---1975-----------------A---L
CHRIS RABE-----------12/16---2.5", BIC------------------------W
---2001--------CG----A---L
CHRISTINE GANDY-------12/16---3", BIC--------------------DP
---1958--------VG----A
CHRISTINE MARINA---------------------------------------------M
CHRISTINGLE---------35---2.75+"------------------------------OR
---1985-------BG-----A
CHRISTOPER COLUMBUS--------------------------------------PB
---1992---7.6---6.9
CHUCKLES------------11---3.5", BIC----------------------------DP
---1958---8.0----------A
CIMAROSA-----------41+---2.75+", BIC------------------------OP
---2000--------CG------B---M
CINNABAR INPROVED--------12/16---BIC------------------OR
---1951
CINNABAR-----------12/16---BIC-------------------------------OR
---1945---7.2---UG---A
CIRCE----------16---1.5-2"----------------------------------------OR
---1978----VG/CG---------L
CIRCUS PARADE---SPORT-------------------------------------YB
---1963
CIRCUS, CLIMBING----------------------------------------------YB
---1961
CIRCUS---------AARS---45/58---HT---2.5-3", BIC-----------YB
---1956---BG---------A---M
CISCO---------26/40---1.5-2.75", BIC---------------------------DY
---1993--------UG---A---M
CITRONELLA--------15---BIC-----------------------------------LY
---1946---------BG---A
CITRUS TEASE-------P---17/25---HT----3.5", BIC-----------MP
---2000---7.4---6.8---VG---A---T
CITY OF BELFAST----------17/25---1.5-2.75", BIC----------OR
---1968---8.0----------------M
CITY OF BRADFORD--------15---1.5-2.75", BIC------------OR
---1986------------------A
CITY OF CARLSBAD-------17/25---2.75+", BIC-------------OB
---2000----------BG---A---T
CITY OF HAMILTON-------26---3.5"--------------------------OB
---1972----------UG---A
CITY OF KINGSTON-------41+---1.5-2.75"-------------------OR
---1973-----------------A
CITY OF LEEDS--------19---4.5", BIC--------------------------OP
---1966---7.9----------A
CITY OF LONDON--------15/25---2.75+"----------------------LP
---1986---7.5---BG---B
CITY OF NOTTINGHAM------30/40---2.5"-------------------OR
---1962---VG/CG-----A
CITY OF PORTLAND------5---2.5-3.5"------------------------MR
---1977---------UG----A
CITY OF PORTSMOUTH------25---3-4"-----------------------OB
---1975-----------------A---T
CITY OF PRETORIA----------------------------------------------AB
CITY OF SAN FRANCISCO--------17/25---2.75+", BIC----MR
---2000CG----------A---T
CITY OF SPRINGFIELD-------34---1.5-2.75", BIC-----------RB
---1988----BG/UG
CLARA GRANATO-----------------------------------------------MR
CLARE GRAMMSERSTORF-------17/25---HT---2.75+"---DY
---1957---VG/BG
CLARIDGE--------35---2.75+"-----------------------------------MP
---1984--------BG-----A---M
CLARINDA-------12/16---1.5-2.75", BIC----------------------MR
---2001-----------------A
CLARION CALL--------6/14---1.5-2.75", BIC-----------------OP
---1995--------BG-----A---M
CLARITY-------15/25---1.5-2.75", BIC---------------------------W
---1993----UG/BG----A---M
CLASS ACT--------AARS---12/16---BIC------------------------W
---1988---7.8---7.1---BG---A---M
CLAUDIA---G/D--------17/25-------------------------------------PB
---1959----VG
CLEONAGH ANN--------G/D---17/25---1.5-2.75", BIC-----MP
---2001-----SG-------A
CLIFF RICHARD---------------------------------------------------PB
---1993
CLOS FLEURI BICOLORE----------------------------------------------1992
CLOS FLEURI BLANC--------40---2.75+"----------------------W
---1988-----VG------A---T
CLOS FLEURI CHAPAGNE--------------------------------------W
---1990
CLOS FLEURI DOR----------------------------------------------DY
---1990
CLOS FLEURI JAUNE-------18---2.75+"----------------------MY
---1988-----------------A
CLOS FLEURI ROSE #2------------------------------------------MP
---1994
CLOS FLEURI ROSE-------30---1.5-2.75"---------------------MP
---1988----BG/VG---A
CLOS FLEURI ROUGE-------20---FLAT---1.5-2.75"--------MR
---1988-----BG/VG---A
CLOS VOUGEOT-------28--1.5-2.75"--------------------------MR
---1983-----BG
CLUB------4/11---OPEN---1.5-2.75"----------------------------MR
---1957----VG/BG---A
CLUBROSE SCALA--------17/25---1.5-2.75"------------------RB
---1973----BG/VG---A
CLYDEBANK CENTENARY-------15/25---1.5-2.75"-------OR
---1988-----------------A
COCO--------20/25---3"--------------------------------------------YB
---1975------VG------A
COCO----------------------------------------------------------------OR
---1989
COCORICO--------8---3", BIC-----------------------------------OR
---1951----VG/BG----A
COCORICO----------------------------------------------------------PB
---1989---8.4-----------A
COCORIO, CLIMBING-------------------------------------------OR
---1964
COED--------17/25---HT---1.5-2.75"----------------------------MY
---1969----VG/UG----A
COFFEE COUNTRY-------15/25---2.75+", BIC----------------M
---1997-----SG---------A--M
COGNAC, CLIMBING--------------------------------------------AB
---1962
COGNAC--------17/25---2.75+", BIC----------------------------AB
---1956---------------------M
COLCHESTER BEAUTY--------6/14---1.5-2.75", BIC-------DP
---1992---BG----------B---M
COLCHESTER GAZETTE-------40/50---2"-------------------MR
---1972-----------------A
COLES PINK LAFAYETTE-------12/16----------------------MP
---1930
COLETTE JELOT--------12/16---1.5-2.75", BIC--------------YB
---1942-----------------A---L
COLISEE-------12/16---OPEN---1.5-2.75"---------------------MR
---1965---BG/VG
COLLEGIATE 110------------------------------------------------MY
COLOR GIRL------17/25---HT---1.5-2.75"---------------------PB
---1966---5.6---BG---B---L
COLORADO--------------------------------------------------------MP
COLOUR CARNIVAL------50---HT---BIC--------------------YB
---1962---6.9---BG---A---L
COLOUR GLOW-------36---3.5"---------------------------------OB
---1969----------VG---A
COLOUR PARADE------26/40---1.5", BIC--------------------YB
---1991-----BG-------A---L
COLOUR SERGEANT--------20---4"---------------------------OR
---1972-----------------A
COLUMBINE----------HT--- BIC--------------------------------YB
---1956---6.1---VG---B
COLUMBUS-------28---HT---2.75+", BIC / S-----------------DB
---1990---7.3---7.2---BG---M
COMEDIE------------------------------------------------------------------1977
COMET------CL---41+---2.75+"----------------------------------PB
---1934-----------------A
COMMONWEALTH--------10---BIC----------------------------PB
---1948-----------------A
COMPASSIONATE FRIEND-------24---1.5-2.75", BIC------LP
---1993---SG----------A--L
CONASERVENCY ROSE-------30--1.5", S--------------------MP
---1996-------BG-----A---L
CONCERTINO---------20---FLAT---1.5-2.75"-----------------OR
---1976---VG/BG----A
CONCERTO, CLIMBING----------------------------------------MR
---1968
CONCERTO--------12/15---2-2.5"-------------------------------MR
---1953----UG/BG---A
CONCORDE---------------------------------------------------------PB
---1993
CONDESA DE GLIMES-------4/11------------------------------PB
CONFETTI--------18/25---HT---BIC-----------------------------RB
---1980---6.8---6.2---UG---A
CONNIE CROOK--------26/40---2.75+", BIC-----------------MR
---1997----------UG---A---T
CONNIE MACK--------25---1.5-2.75", BIC--------------------DR
---1952---6.8---VG---A---M
CONQUERORS GOLD-------18--1.5-2.75", BIC-------------YB
--1986---7.7---7.1---BG---A---M
CONQUEST-------30---3.5", BIC--------------------------------MY
---1994-----BG--------A---M
CONRAD HILTON-------30/45---FLAT---2.5"---------------MY
---1962---6.9---BG---A---M
CONSTANCE FETTES-------26/40---1.5-2.75", BIC---------AB
---1993---------UG---A---M
CONSTANCE FINN------------------------------------------------LP
---1997
CONTEMPO--------17/25---HT---1.5-2.75"--------------------OB
---1971--6.6--BG---A
COOLNESS---------55/60---2.5-3"--------------------------------W
---1958---CG/BG---A---L
COON CARNIVAL-------56---2.75+", BIC--------------------YB
---1981--------CG---A---T
COORAN---------17/25---HT---2.75+", BIC--------------------DP
---1953--------VG---B
COOROY---------41+---HT---BIC-------------------------------MP
---1953
COPACABANA-------40---3.5"----------------------------------OB
---1995----------------A
COPIA--------17/25---2.75+", S----------------------------------MR
---1964---VG/CG
COPPA NOB--------------------------------------------------------OP
---1982
COPPELIA 76--------17/25---1.5-2.75"--------------------------OP
---1976---------------A
COPPER DELIGHT--------14---2.75+", BIC-------------------OB
---1956---5.5--UG---A
COPPER KETTLE-------28---HT---2.5-3.5"--------------------OB
---1978---------UG---A
COPPER POT--------15---2.75+", BIC--------------------------OB
---1968---6.9---------A
CORAL BELLE-------45----HT---1.5-2.5"----------------------OB
---1962---VG/UG---A
CORAL CASCADE-------50/75---BIC / S----------------------OR
---1982---VG/BG----A
CORAL CROWN-------35---HT---3", BIC---------------------OR
---1960---7.8---CG---A---L
CORAL FLOC------------------------------------------------------OR
CORAL GEM--------40/50---2.5", BIC--------------------------PB
---1958---VG/BG----A
CORAL PRINCESS-------252.75+"---------------------------OB
---1966---VG/CG-----A
CORAL QUEEN ELIZABETH------17/25---2.75+", BIC----OP
---1966--CG---A
CORAL SAND-------BIC---26/40---2.65+", S------------------OP
---1990---7.6---7.5---BG---B---M
CORAL SILK---18---FLAT---3"---------------------------------OP
---1972-----------------A
CORALGLO-------42---CUPPED---2.75+"---------------------OP
---1960---7.3---BG---A---L
CORDULA-------17/25---1.5-2.75"------------------------------OR
---1972---VG----------A---L
CORINIUM-------48/50---ROSETTA---3"-----------------------M
---1970-----------------B
CORINNE---------15/25---3", BIC-------------------------------AB
---1997----BG--------A---M
CORKY--------26/40---2.75+", BIC------------------------------RB
---1991-----VG--------A
CORNE HERHOLDT----------------------------------------------PB
CORONATION GOLD-------27---4"----------------------------AB
---1978---VG/UG-----A
CORONET--------17---3", BIC-----------------------------------DR
---1957---VG/UG
CORSAGE-------17/25---1.5", BIC--------------------------------W
---1965---7.3---VG---A
CORSAIR--------20---1.5-2.75"-----------------------------------OR
---1985----BG---------A
CORSICA---------20---1.5-2.75"----------------------------------PB
---1964---BG----------B
CORSO FLEURI--------12/16---SPORT------------------------DR
---1956----CG-------------L
COSETTA------------30---1.5-2.75"------------------------------OB
---1984----------------------M
COSETTE----------P---58------------------------------------------MP
---1986-----SG--------A---L
COSIMA-----------20---1.5-2.75"---------------------------------OR
----1982
COSMOPOLITAN----------BIC----------------------------------MP
---1955-----BG
COTILLION---------41+---HT---4", BIC-------------------------M
---1999---7.4---VG---B---T
COTSWOLSD SUNSET-------15/25---HT---2.75+", BIC----PB
---1992---CG----------A---T
COTTILION--------HT---1.5-2.75"-------------------------------YB
---1967-----------------A---T
COTTON TOP-------45/50---FLAT----3"------------------------W
---1962-----UG--------A
COUCOU------------------------------------------------------------DY
---1982
COUNTESS OF DALKEITH-------12/16-----------------------RB
---1957------VG--------B
COUNTRY GARDEN--------CL---8/14---2.75+", BIC-------DP
---1996------SG--------A---15
COUNTRY GIRL, CLIMBING----------------------------------MR
---1962----------
COUNTRY GIRL-----------17/25---1.5-2.75"------------------MR
---1958----VG--------------M
COUNTRY LIFE----------------------------------------------------OP
---1998----CG--------A---L
COUNTRY MAID---------------------------------------------------LP
---1971-----------------A
COUNTY FAIR--------8/10---2.5-3", BIC-----------------------MP
---1960---7.6---CG---A---L
COUNTY GIRL----------17/25---4", BIC------------------------OP
---1999---BG---------A---T
COUP DE FOUDRE, CLIMBING-----------------------------------
---1976
COUP DE FOUDRE----------HT----------------------------------OR
---1956---VG
COURT JESTER----------5/7-----BIC----------------------------OB
---1980----UG--------A---T
COURTOISIE-----------20---2.75+"------------------------------OB
---1984-----BG-------A
COURVOISIER----------49---HT---3.5"------------------------DY
---1970---5.8----------B
COVENTRIAN----------30---3-3.5", BIC------------------------DP
---1962-----BG/VG
CRACKERJACK--------20---BIC--------------------------------RB
---1959-----------------A
CRACKERJACK---------------------------------------------------OB
---1989
CRATHES CASTLE-------18---BIC-----------------------------MP
---1980------BG-----A
CRAZY HORSE---------------------------------------------------------
CREAM ABUNDANCE--------50+-------------------------------W
---1999
CREAM PEACH-----------15/20---3-4"---------------------------W
---1975------SG-------A
CREPE MYRTLE------------12/16---2.75+", BIC-------------MR
---1937----------------A---T
CRIMSON DRAWN-----------20---3.5-4.5"--------------------RB
---1970------VG------A
CRIMSON LACE---------17/25---OGR---3.5", BIC-----------DR
---1998---8.0---CG---A---T
CRIMSON ROSETTE--------30---1-1.5", BIC-----------------DR
---1948---8.1---VG---A--M
CRIMSON VELVET----------4/11---1.5-2.75"-----------------DR
CRIMSON WAVE------------25/30---4-5"----------------------MR
---1971---UG/VG----A
CRISTIAN------------------------------------------------------------M
CROWN JEWEL-------------17/25---1.5-2.75", BIC-----------OR
---1964---6.2----------A---M
CRUMBLE BAR---------------------------------------------------DY
---1982
CRYSTAL------------------------------------------------------------LP
---1995
CSARDAS-------------17/25---2.75+"----------------------------OP
---1965
CUPIDS CHARM---------22---1.5-2.75"------------------------PB
---1964---7.9---VG---A---M
CUPIDON------------12/16---1.5"---------------------------------DR
---1966---UG/BG-----A
CURIOSA------------17/25---2.75+"------------------------------OP
---1964
CYCLAMEN LA SEVILLANA----------------------------------PB
---1992
CYCLAMEN-----------12---3", BIC-----------------------------MP
---1959---VG/BG
D. MALVINA LOUREIRO--------------------------------------------
D.T.POULSEN IMPROVED-----------30/35-------------------MR
---1940---CG/BG---------L
D.T.POULSEN-----------------12/16---OPEN-------------------MR
---1930--------BG----A
DARTAGNAN-----------------------------------------------------OB
DACAPO------------28---3-4", BIC-------------------------------OP
---1960---8.2---CG---A---L
DADY----------------------------------------------------------------MP
---1975-----------------B
DAGENHAM SHOW----------25---3.5"-------------------------OB
---1976--------VG------B
DAGMAR SPATH, CLIMBING----------------------------------W
---1940
DAGMAR SPATH----SPORT-------------------------------------W
---1936------------------A
DAGMAR-----------------------------------------------------------MR
DAHLILA------------------------------------------------------------YB
---1962
DAIDALA-----------35---HT---4"----------------------------------M
---1975---VG/BG-----A
DAILY SKETCH-------------46---3.5" BIC----------------------PB
---1961---7.0---VG---A---T
DAINTY LADY-------------BIC-----------------------------------OP
---1963-----------------------M
DAINTY MAID---------------4/11---BIC-------------------------PB
---1940---7.9---CG---------L
DAIRY MAID-----------------5---1.5", BIC / S------------------LY
---1957---8.0---------------M
DAISY HILLARY------------17/25---HT---2.75+", BIC-------OP
---1963---VG/BG
DAISY ROSE-----------------5---1.5", BIC-----------------------PB
---1982---BG
DALE FARM--------------25--- --3"------------------------------OR
---1973---VG----------A
DALILA-------------CUPPED--- 17/25---------------------------OB
---1958----UG/BG
DALLI DALLI----------17/25---1.5-2.75+"----------------------DR
---1977----------------A
DAME CATH-----------12/16---1.5-2.75", BIC-----------------LP
---1998-------BG-----A---L
DAME DE LETOILE----------------------------------------------W
---1994
DAME OF SARK---------33---4.5"-------------------------------OB
---1976---7.5---6.5---A
DAME VERA LYNN----------20---2.75+"----------------------OR
---1986-----UG-------A
DAME WENDY----------------------------------------------------MP
---1991
DANCE OF JOY 95------------------------------------------------OR
---1995-------
DANCE OF JOY-----------17/25---2.75+"-----------------------MR
---1931----BG --------A
DANCING DOLL---------CL---10/14---BIC--------------------DP
---1952----SG--------B---10
DANCING PINK----------6/14---2.75+", BIC-------------------DP
---1993---BG---------A---M
DANDY DICK-----------25---HT---2.75+"----------------------MP
---1967----------------A
DANIEL PHILIP----------12/16---1.5", BIC--------------------MR
---1999---UG---------A---M
DANISH GOLD-----------5/9---2.5-3----------------------------YB
---1949---VG/CG----A---L
DANISH PINK-----------4/11---2-2.5", BIC---------------------DP
---1965-----------------A--T
DANSE DES ETOILES---------15/18---2.5"--------------------OR
---1973
DANY ROBIN------------25---1.5-2.75", BIC-------------------OP
---1958---CG---------A---L
DAPHNE GANDY---------3"---BIC-----------------------------MR
---1952-----------------A
DARLING DIANE---------26/40---2.75+"-----------------------PB
---1995---UG----------A---T
DAUPHINE, CLIMBING-----------------------------------------OP
---1959
DAUPHINE--------------7/25---OPEN---2.75+", BIC----------OP
---1955---BG----------A---T
DAVID LEEK-------------------------------------------------------DP
---1996
DAVID WHITFIELD----------------------------------------------MP
---1991
DAVY CROCKETT-----------17/25---2.75+"------------------DR
---1956---VG
DAWN MIST------------30/35---3"-------------------------------PB
---1962---VG/BG-----B---L
DAWN PINK------------40/50---3.5", BIC----------------------MP
---1962---VG/UG-----A---T
DAWN WELLER---------------------------------------------------OP
---1995
DAWNLIGHT-------------30/35---2.2.5"-------------------------PB
---1958---BG/VG-----A
DAY BREAKER--------AARS---26/40--- HT--- 4", BIC-----YB
---2003-----------------A---T
DAY LIGHT----------15/25---2.75+", BIC----------------------AB
---1992----UG--------------M
DAYLIGHT KATY---------22---1.5-2.75", BIC---------------MY
---1987-----------------A---L
DAZZLING DELIGHT--------------------------------------------OP
2004
DE GREEFFS JUBILEE---------12/16---2.75+"---------------DR
---1980-----------------A---M
DE GRRFFS JUBILEE-----------12/16---2.75+"--------------DR
---1980---BG----------A
DEAR PRUDENCE----------15/25---1.5-2.75", BIC-----------PB
---1995----BG------UG---A---T
DEAREST, CLIMBING-------------------------------------------PB
---1970
DEAREST-----------30---HT---3.5", BIC------------------------PB
---1960---7.2---BG-------A
DEAREST---------CL-----------------------------------------------OP
---1970
DEBS DELIGHT--------P---35---1.5-2.75"---------------------PB
---1983---7.5---6.6---BG---A---L
DEBBIE DAWN----------15/25---2.75+", BIC------------------LP
---1997----UG------------M
DEBORAH DEVONSHIRE---OGR---41+--1.5-2.75", BICPB
---1997---BG---A--T
DEBUTANTE--------20---1.5"------------------------------------MP
---1985----BG------A--M
DECCAN DELIGHT-----------------------------------------------YB
---1985--------UG
DECEA ANN----------26---3.5-4"--------------------------------AB
---1975------------------B
DEDICATION--------17/25---BIC--------------------------------LY
---1968---------------A
DEEP PURPLE-------30/45---3-4"---------------------------------M
---1980---7.7---7.6---VG---A
DEEPIKA----------15---OPEN---2"------------------------------RB
---1975--BG
DEEPSHIKHA-------35---OPEN---2.5"-------------------------MR
---1975----VG/BG---A
DEL MAR FAIR--------26/40---2.75+", BIC--------------------DP
---1993-------UG/BG----------A---M
DELBARD------------17/25---2.75+"-----------------------------OR
-----------------------------------A
DELHI BRIGHTNESS---------12/16---OPEN---1.5-2.75"----OP
---1963-----BG/UG
DELHI DAINTINESS---------12/16---1.5-2.75"----------------LP
---1963--------CG/VG---L
DELHI MAID-----------4/11 ---1.5-2.75"------------------------OB
---1963--------CG/UG---L
DELHI PRINCE--------12/16--- OPEN 1.5-2.75"--------------DP
---1963----BG/VG -----------------A
DELHI PRINCESS------12/16--- OPEN ---2.75+", BIC------MP
---1963---VG/CG-----A---L
DELHI ROSETTE-------28---OPEN---1.5-2.75"---------------OB
---1965-----VG/CG---L
DELHI SHERBET--------17/25---1.5-2.75"--------------------MP
---1963------BG/CG-----------B---L
DELIGHTFUL PINK------P-----40/45---1.5-2.75", BIC------MP
---1958------VG/UG-------A
DELtou------------------------------------------------------------------ -----1986
DEMURE---------G/D----FLAT---52---2", BIC----------------DP
---1952----VG/CG---A---L
DENISE-ANNE--------30/35---4"--------------------------------OP
---1973--------VG---------B
DENK AN MICH---------------------------------------------------AB
---1995
DENNY BOY----------41+--1.5"---------------------------------YB
---1949---7.4----VG------A---L
DERBY-------17/25---1.5-2.75", S-------------------------------OR
---1963----VG/CG---A
DERDINGER SOMMER----------------------------------------- MP
---1991
DESERT DANCE--------15/18---CUPPPED----3"-------------OB
----1975--------A---T
DESERT SANDS---------30---4.5"-------------------------------AB
---1976-----VG------------B
DESPERADO-------12/16---BIC---------------------------------YB
---1968-----------------A
DESSERT--------12/16---1.5-2.75"-------------------------------RB
DESSY----------------------------------------------------------------LP
---1959
DESTINY-------------------------------------------------------------W
---1989
DEUTSCHE WELLE------------------------------------------------M
---1983
DEVI GAYATRI-----------------------------------------------------W
---1992
DEVILS DANCE--------------------------------------------------MR
DEVOTION--------32---4.5", BIC--------------------------------PB
---1971-----------------A---M
DEWEY---------17/25---1.5-2.75"--------------------------------DR
---2001------BG------------M
DIABLOTIN, CLIMBING----------------------------------------MR
---1970
DIABLOTIN---------172-3", BIC-----------------------------MR
---1961-----------CG-----L
DIABOLO--------12/16---CUPPED---1.5-2.75"----------------OP
---1958------VG/BG---A---M
DIADEM-------------------------------------------------------------MP
---1986
DIAMANT-------40---HT---2.75+", BIC------------------------OR
---1962---7.1---BG/UG-------T
DIANA--------17/25---1.5-2.75"----------------------------------MY
---1977----BG/UG----A---M
DICfate-------18---1.5-2.75"---------------------------------------MP
---1975----UG/BG---------------A
DICKSONS FLAME-------17/25--3.5, BIC-------------------OR
---1958---6.1---VG-------A
DICKY---------35---2.75+", BIC----------------------------------OP
---1984---8.5---BG----A---M---(14/8)
DIE RHEINPFALZ-------------------------------------------------OB
---1993
DIMPLES---------12/16---BIC------------------------------------LY
---1968---6.0------------A
DIPLOMATKA------------17/25---2.75+"-----------------------MR
---1967
DIRECTEUR DONATIEN LELIEVRE-------------------------OB
---1958
DIREKTOR RIKALA---SPORT---------------------------------MP
---1934
DISCO DANCER-----------12/16---1.5-2.75"-------------------OR
---1984---7.1---7.1---BG------A
DISCO----------------------------------------------------------------PB
---1980
DISNEYLAND------------25--------------------------------------OB
---2003
DISPLAY-----------P----13---2.5" BIC---------------------------PB
---1956-------------------A
DISTINCT---------P-----25/30---1.5", BIC----------------------RB
---1953-----CG--------------A---L
DISTINCTION, CLIMBING--------------------------------------DP
---1935
DISTINCTION----------SPORT-----------------------------------DP
---1927
DIVING LADY-------------17/25----------------------------------OP
---1965---VG/BG
DIZZY----------------------------------------------------------------- -------1974
DOCILE--------------------------------------------------------------MP
---1995PB---1997----UG--------------B---5
DOCTOR FAUST----------------17/25---MB--------------------YB
---1957------------------A---T
DOLLY BROWNELL----------26---------------------------------LP
---192O
DOLLY------------20---2.5-3"--------------------------------------DP
---1975---7.3---BG--------A---T
DOMINATOR---------------12/16---3", BIC---------------------MP
---1961-------VG/UG-----------A
DOMSTADT FULDA---------12/16---2.75+", S----------------OR
---1994------------------A
DON CARTWRIGHT----------15/25---1.5-2.75", BIC-------MR
---1997----UG/CG-------------A---M
DON QUICHOTTE----------17/25---HT---2.75+", BIC-------RB
---1964-----VG/UG---------A---T
DON VOGT----12/15---HT---1.5"---------------------------------W
--2004----BG---A---M
DONALD DAVIS--------15/25---1.5-2.75", BIC---------------OR
---1992-----------UG--------A---T
DONALD PRIOR, CLIMBING-----------------------------------MR
DONALD PRIOR---------11---3", BIC---------------------------MR
---1938---8.3-------BG-----A---M
DONALD THOMAS HEALD------P---6/14---1.5", BIC------YB
---1994----CG-----L
DONAUPRINZESSIN----------------------------------------------MP
---1994
DONNA JEAN--------6/14---1.5-2.75", BIC----------------------M
---1991---2.0--BG
DONNA ROSE---------G/D---17/25---3.5", BIC---------------MY
---2003------------BG---M
DOREEN WELLS--------25---3"----------------------------------OR
---1970----------BG----------A---L
DORIC--------40---2.75+"---BIC----------------------------------YB
---1963-----CG/BG----L
DORIS ARCHER--------30/35---4", BIC------------------------RB
---1962-------VG/CG--------------A---L
DORIS HOWARD-------BIC--------------------------------------MR
---1957-------BG/VG
DORIS NORMAN--------30---HT---2", BIC--------------------OR
---1958---6.9---BG/VG
DOROTHY----------------------------------------------------------AB
---2004
DOROTHY WHEATCROFT--------18---3.5", BIC-----------MR
---1960--------VG----A---T
DOROTHY WILSON----------------------------------------------OB
---1995
DORRIT---------30/40---FLAT---2.75+", BIC------------------OB
---1968
DOUBLE TALK--------48---1.5", BIC---------------------------RB
---1980---7.6---6.8---CG--------A---L
DOULCE FRANCE---------17/25---FLAT---2.75+"-----------PB
---1964-----UG
DR. BARNARDO---------30---2.75+", BIC---------------------DR
---1968-----UG/BG----------------A
DR. JO----------------------------------------------------------------OB
---2002
DR. MAGARETHA---------17/25--1.5-2.75", BIC-------------DR
--1960---BG/CG
DR. McALPINE-------P---30---HT---2.75+"--------------------DP
---1981--------BG----------B---L
DR. MENGELBERG--------12/16---2.75+"---------------------DR
---1952----VG
DR. REINER KLIMKE---------------------------------------------LP
---1988
DREAM DOLLY---------------------------------------------------OP
---1993
DREAM DUST---------17/25---1.5", BIC-----------------------MP
---1969---7.2----SG--------A---M
DREAM ON---------P---17/25---1.5-2.75", BIC---------------MR
---2000----------CG--------A---L
DREAM WALTZ---------17/25---2.75+", BIC-----------------DR
---1969
DREAM WEAVER-------CL---26/40---3.5", BIC-------------OP
---1998---7.9---7.1---SG---A---12
DRIFTERS ESCAPE--------10---3-3.5"------------------------OR
---1971
DROUJBA--------42---CUPPED---1.5", BIC-------------------YB
---1975----BG---A
DRUMMER BOY------17/25---1.5", BIC-----------------------MP
---1965------VG------------A---T
DRUMMER BOY--------P---15---1.5", BIC--------------------DR
---1987----SG---A---T
DUCHESS OF KENT---------SPORT----------------------------DP
---1968---------BG------L
DUCHESS OF RUTLAND-------12/16---1.5", BIC-----------DP
---1956------VG----T
DUCHESS OF YORK-------26/40---1.5", BIC-----------------OR
---1994---------------A---L
DUFBELLA-----------17/25---2.75+"----------------------------DR
---1973-------------------B
DUFPARADIES----------------------------------------------------DR
---1966
DUFTRAUSCH---------12/16-------------------------------------MP
---1972----------UG---------B---M
DUFTWUNDER---------41+---2.75+"---------------------------OB
---1972--------UG-----------B---M
DUMBO------------17/25---2.75+", / S---------------------------MR
---1956-----VG------T
DUO-----------4/11 ---OPEN---1.5-2.75"------------------------OR
----1955---------A---T
DURBAN JULY--------12/16--1.5-2.75"------------------------RB
---1982
DUSKY MAIDEN--------4/11---3", BIC------------------------DR
---1947---8.2-------VG----A---M
DUSTY PINK----------50/60---HT---3.5-4"---------------------LP
---1961---------BG/UG---------A---T
DUSTY SPRINGFIELD-----G/D---6/40---1.5-2.75", BIC----LP
---2001-----CG-----A---M
E. I. FARRINGTON--------50/60---HT---3.5-4"---------------MR
---1953----SG/VG------A---T
EADS--------------------17/25---1.5-2.75", BIC / S--------------PB
---1991----CG----------A---L
EAGLE WINGS--------5---2", BIC--------------------------------M
---1982----------BG--------A
EARLY BIRD----------17/25---4"--------------------------------MP
---1965------------------A---M
EAST EUROPE-----------------------------------------------------MP
EASTER PARADE-------50/55---2.5-3.5"----------------------YB
---1951---6.8-----BG------A---M
EASY GOING-----------G/D----26/40----3.5-4", BIC---------YB
---1999---8.0---7.0---BG-----B---T
EASY ORANGE------------26/40---1.5-2.75", BIC------------OB
---1995-----------UG-------A---M
EASY VIBES------------17/25---1.5-2.75", BIC----------------OP
---1999----------CG----A---M
ECLAIREUR-----------------------------------------------------------
---1991
ECLIPSE-------------------------------------------------------------PB
---1997
EDDIES CREAM-------17/25---2.75+", BIC-------------------W
---1956------VG-----------A---T
EDEN ELLEN--------35---1.5-2.75"-----------------------------AB
---1984-----BG------------A
EDEN SUNGOLD--------30/35---3"----------------------------MY
---1976------------------A---L
EDITH DE MARTINELLI, CLIMBING------------------------OP
---1983-------------------------T
EDITH DE MARTINELLI---HT---------------------------------OP
---1958-----------------VG---M
EDITH DENNETT-----------24/30---ROSETTE---2-3"-------OP
---1973------------------A---M
EDITH HOLDEN--------15---1.5-2.75", BIC---------------------R
---1988---------UG--------A---T
EDNA-CHRIS-------30---3.5"--------------------------------------W
---1977---------UG---------A---T
EDWARD COLSTON------40/45---1.5-2.75", BIC------------DR
---1990------UG------A---M
EDWARD LITTLE STAR-----G/D---4/11---1.5-2.75", BIC---M
---2001----UG-------A---T
EFFEKT--------------------------------------------------------------DR
---1975
EGALITE------------25---4", BIC----------------------------------M
---1946-------SG-----------A---M
EGESKOV----------20---CUPPED---1.5-2.75", BIC-----------MP
---1982-------BG---------A
EILEEN WHYTE----------G/D---17/25---1.5-2.75", BIC-----OP
---2001---------UG----------A---T
ELAGANT DESIGN----------15/25--1.5-2.75", BIC-----------PB
---1994-----BG/UG--------A---M
ELAINE WHITE----------12/16---1.5", BIC---------------------W
---1959-------VG/UG---------A---T
ELAINES CHOICE--------40---5"-------------------------------PB
----1972-----------------B---T
ELAN-----------------------------------------------------------------MY
---1960
ELBEFREUDE------------17/25---2.75+"------------------------MR
---1983
ELDORADO---------------------------------------------------------DY
---1992
ELEANOR ANNELISE-------G/D---17/25---BIC--------------PB
---2001-----UG---A---M
ELEONORE-------------------------------------------------------------
---1973
ELFE SUPREAM--------SPORT----------------------------------MP
ELFE-----------10---2.75+", BIC-----------------------------------W
---1951-------UG/BG----------B---M
ELFIN-----------17/25---4.5", BIC--------------------------------OR
---1939----------------L
ELISABETH---------------------------------------------------------DP
---2004
ELISABETH ANN--------15/25---1.5-2.75", BIC--------------OB
---1993------UG-----------A---M
ELISABETH OF GLAMIS------------35--4", BIC--------------OP
---1964---7.4-----BG------B---M
ELISABETH PHILP----------SPORT----------------------------AB
---1976
ELISABETH TSCHUDIN-----------------------------------------MP
---1981
ELLIS WOOD--------17/25---1.5-2.75"--------------------------YB
---1983----------------M
ELOQUENCE----------20---1.5", BIC-----------------------------M
---1986--------UG/BG---T----------A
ELSBETH-----------17/25---BIC----------------------------------LP
---1962
ELSE POULSEN MELDUGSFRI---SPORT-------------------MP
---1937
ELSE POULSEN MORKROD--SPORT------------------------DR
---1934-----------BG------A---T
ELSE POULSEN, CLIMBING-----------------------------------MP
---1938
ELSE POULSEN---------10---2", BIC---------------------------MP
---1924---8.1----BG---A---T
ELSES RIVAL----------SPORT---------------------------------MR
---1938
ELSIE DEVY-----------17/25---HT--------------------------------M
---1967------UG/BG------------A---T
ELSIE WARREN--------15/25---1.5-2.75"----------------------AB
---1989-----UG-------------A---M
ELSIE WRIGHT----------15---2.75+", BIC----------------------PB
---1982----UG--------------B
ELSINORE--------------12/16---OPEN---BIC------------------MR
---1957
ELUIS SCARLET------------SPORT----------------------------MR
---1931
ELUSIVE-------------------15/25---1.5-2.75", BIC--------------PB
---1993--------UG/BG-----------A---M
EMBARASEMENT---------17/25---BIC------------------------MR
---1956
EMBERS------------19/25---HT---2.5-3", BIC------------------YB
---1953--------7.1----CG----A---M
EMERALD DREAM----------12---FLAT---1.5-2"--------------W
---1976-------CG-----------A---L
EMIL KRUISIUS----------25/30---2.75+", BIC----------------MY
---1943---------VG/BG---------A
EMILY VICTORIA--------41+---1.5-2.75", BIC---------------OP
---1994------CG/BG-----------A---M
EMMA BRADY-----------G/D---17/25---2.5", BIC------------YB
---2003------BG---A---M
EMMA JANE--------------16---3"---------------------------------OP
---1970
EMMA KATE-----------35---1.5-2.75"---BIC------------------MR
---1992--------UG/BG---------A---M
EMMA--------------------70---1.5-2.75", BIC--------------------DP
---1980-----CG-------------B---M
EMMERDALE-----------35---1.5-2.75"--------------------------MP
---1983------BG-----------A
EMOTION-----------------------------------------------------------OR
---1981
ENCORE----------------10/14---3", BIC--------------------------MP
---1958---7.2-------BG----A---M
ENFEILD IN BLOOM----------26/40---2.75+", BIC---------MY
---1996--------------A---T
ENGLISH COURTYARD------------41+---1.5-2.75", BIC---MP
---2000----------A---M
ENGLISH HOLIDAY-----------33---4"--------------------------YB
---1977-------------------A--M
ENGLISH MISS---------60---2.5" BIC---------------------------LP
---1977---8.3-----------B
ENGLISH SONNET--------41+---1.5", BIC--------------------AB
---1999-----SG/UG---------A---T
ENNIO MORLOTTI---------35---HT---2.5-3"-----------------MP
---1973-----VG/UG----------B---T
ENTERPRISE-----------20---2", BIC-----------------------------PB
----1957-------VG/UG----------A---T
ENZO FUMAGALLI---------41+---------------------------------MP
---1966---------VG/BG-------T
EPIC--------------------30---1.5-2.75", BIC----------------------MP
---1989---BG--------------A
EPINAL----------------------------------------------------------------- ----1994
ERIC--------------12/16---CUPPED---1.5-2.75"----------------MR
---1965----VG-----T
ERICA HERHOLDT--------12/16---2.75+"---------------------OR
---1964
ERICA-----------17/25---BIC / S----------------------------------OR
---1964
ERICH FRAHM----------39---OPEN----------------------------MR
---1939--------------SG/VG-----T
ERNA DORIS---------24---HT---1.5-2.75", BIC---------------OP
---1985------UG/BG-----------A
ERNA GROOTENDORST---------41+--2.75+"----------------OR
---1938---6.6-----BG----------M
EROS-----------------------------------------------------------------DP
---1955----------CG----L
ESCADA------------------------------------------------------------MR
---1994---7.1----CG----T
ESCAPADE----------12---3", BIC---------------------------------M
---1967---8.6-----A---(10/9)
ESCO ROSE------------------------------------------------------------ESCORT---------25/35---HT---1.5-2.75"------------------------DR
---1963---6.7
ESKIMO--------------------------------------------------------------W
---1991
ESMERALDA-----------17/25---1.5", BIC----------------------DP
---1957-----VG-------A---T
ESPERANZA------------17/25---2.75+", BIC------------------MR
---1966---8.3---UG
ESPOIR--------------50---4.5"-----------------------------------------
---1958------BG------A---L
ESTAFETTE------------12/16--2.5-3", BIC---------------------DR
---1962---------VG---T
ESTELLE-------------------------------------------------------------R
----------
ESTER JERABEK----------18------------------------------------MP
---1978-------SG
ESTER PEIRO-----------HT---26---------------------------------OR
---------
ESTER RANTZEN---------12/16---1.5-2.75"------------------OB
---1982----UG/BG-----A
ESTER-----------------7/8---2.75+", BIC------------------------OB
---1954---BG/VG----T
ESTRU------------P---50---1.5"-----------------------------------LP
---1975-------CG---------L
ETERNAL FLAME-----------------------------------------------OB
---1992
ETERNITE------------25---4-5"----------------------------------MR
---1947----SG---------A
ETHEL AUSTIN--------20----------------------------------------DP
---1984-----UG-----A
ETHICAL-----------------------------------------------------------RB
---1995
EUMUNDI-----------41+---CUPPPED---------------------------W
---1953-------BG/VG----T
EUREKA------------AARS 25/30--------------------------------YB
---2003
EURO 92------------------------------------------------------------MR
---1989
EUROPA-------------17/25---1.5-2.75"--------------------------MP
---1987-----------------A
EUROPE SENSATION-------------------------------------------OR
EUROPEANA, CLIMBING--------------------------------------DR
---1987
EUROPEANA----AARS---25/30---ROSETTE---3", BIC----DR
---1968---8.7---8.8---A---(7/6)
EUROROSE-----------25---3.5"-----------------------------------YB
---1973
EUSTACIA------------15/25---3", BIC---------------------------PB
---1999------UG----------A---M
EUTIN, CLIMBING-----------------------------------------------DR
---1957
EUTIN--------------17/25---CUPPED---BIC--------------------DR
---1940---7.3-----UG-----A---T
EVA SIMONE--------17/25----------------------------------------OP
---1992-----------------B
EVANGELINE BRUCE--------24---HT---4.5"-----------------YB
---1971----------------A
EVASION----------------------------------------------------------------
---1972
EVELIEN-------------------35---1.5-2.75", BIC------------------LP
---1985-----------------A
EVELYN ELLICE----------HT---3", BIC------------------------LP
---1966----VG--------T
EVELYN FISON-------------17/25---3, BIC-------------------MR
---1962---7.8---CG-----------L
EVELYN GRACE------------15/25---1.5-2.75", BIC----------OB
---1993-------CG---------A---T
EVELYN REDFERN-------16/18---2.5", BIC-----------------MR
---2002--------VG--------A---M
EVELYN TAYLOR-----------------------------------------------OB
EVELYN TEBBUTT----------------------------------------------AB
---2004
EVENING SENTINEL--------------------------------------------OB
---1986
EVENING STAR-------------17/25---HT---2.75+"--------------W
---1974---7.7---BG-------A---T
EVEREST DOUBLE FRAGRANCE----80---25, BIC--------LP
---1980---UG---B---T
EVERGLADES-----------------------------------------------------OP
---1999
EVERGLOW-------------------------------------------------------OB
EVERLASTING LOVE--------15/25---2.75+", BIC----------MR
---1998--------BG---------A---T
EVERT REGTERSCHOT------12/16---------------------------MR
---1965
EVGHENYA-----------75---2.75+"---BIC----------------------OP
--1975-------VG
EVOLUTION-------------------------------------------------------PB
EXCALIBUR----------14---2.5" BIC----------------------------MR
---1967-----BG------------A
EXCELSIOR------------BIC---------------------------------------MP
---1959-------UG--------T
EXPO 64-----------------------------------------------------------------
----1964
EXTRAVAGANZA---------17/25---1.5-2.75"------------------PB
---1974-----BG/VG---T
EYECATCHER-----------22---2.5"-------------------------------PB
---1976------------------A
EYEPAINT----------5/6---2.5"------------------------------------RB
---1975---8.4---BG--------A---T
EYSIUM-----------35---CUPPED---2.75+"---------------------MP
---1981---6.8-----------A---T
EZEANOR ANNELISE------17/25---1.5-2.75", BIC----------PB
---2001------------A---M
FABENSPIEL-------------17/25-----------------------------------RB
---1960------------------B
FABERGE-----------17/25---HT---2.75+"------------------------PB
---1969---7.6---BG---A---T
FABIENNE----------35---1.5"-------------------------------------MP
---1958-----BG---L
FABULOUS!------------26/40---HT---3.5, BIC-----------------W
---2000---8.0---7.7---UG------A---T
FAFADET-------------12/16---------------------------------------OR
---1955
FAIR DINKUM---------3/4"---BIC-------------------------------PB
---1966------------------A
FAIRLIGHT----------17/25---HT---3.5", BIC-------------------OP
---1964--------------A
FAIRY CLUSTER-------BIC--------------------------------------MP
---1935-------VG-----------A---T
FAIRY QUEEN-------17/25---HT---1.5"------------------------LP
----1971------BG/UG------------A---T
FAITHFUL----------12/16----1.5-2.75", BIC--------------------RB
---1964-------VG
FAITHFUL----------------------------------------------------------MR
---1998---------------------T
FALCON-----------------------------------------------------------------
---1989
FAMA----------------------------------------------------------------DY
---1986
FAN MAIL----------17/25---1.5-2.75"---------------------------DY
---1973----BG--------------A---T
FANAL------------20---2.75+", BIC------------------------------MR
---1946-----UG-------------A
FANCY BEAUTY--------------------------------------------------OB
---1999
FANCY TALK---------17/25---HT---1.5", BIC-----------------PB
---1965---7.8---BG--------A---L
FANFARE-----------20/30---3-4"---------------------------------PB
---1956---7.8---SG--------A---T
FANTAN------------1.5"-------------------------------------------OR
---1956---6.2
FAR SIDE----------5---1.5"---, BIC------------------------------OB
---1988----------SG-----A---T
FARANDOLE----------25---1.5-2.75", BIC--------------------MR
---1959----VG/SG
FARBENSPIEL--------17/25--------------------------------------RB
---1960-----BG/CG
FARIDA---------------12/16----------------------------------------DP
---1941------------------A
FASHION, CLIMBING-------------------------------------------OP
---1955
FASHION, CLIMBING--------------------------------------------PB
---1951
FASHION------------AARS---23---3-3.5", BIC-----------------PB
---1949---7.9---BG/VG---------A---T
FASHIONETTE, CLIMBING------------------------------------PB
---1962
FASHIONETTE-----------35/40---3", BIC----------------------PB
---1958---7.6--UG---A---T
FATA MORGANA--------28---2.5" BIC-----------------------OB
---1957---6.8---UG---------A---T
FAUST, CLIMBING----------------------------------------------YB
---1963
FAUST-----------25---2", BIC------------------------------------YB
---1957-----VG/BG--------------A---T
FAVORI----------23---3", BIC------------------------------------OP
---1980----BG---------------B---T
FAYANNE-------------55---2"-------------------------------------PB
---1953-----BG---------------A---L
FAYE REYNOLDS--------CL---26/40---2.75+", BIC---------DP
---1992----UG---------A---7
FEAR NAUGHT----------17/25-----------------------------------DP
---1968-------------------A
FEDRA---------------------17/25-----------------------------------MR
---1959------VG
FEE--------------17/25---2.75+"-----------------------------------OR
---1963---5.6----VG
FEELING-------------------------------------------------------------LP
---1994
FELLIN---------------------------------------------------------------LP
---1996
FEN QUEEN-----------25---2.75+"-------------------------------LP
---1963----VG/UG-----A---T
FERGIE-------------P---40+---2.75+"-----------------------------OB
---1987------BG------------A
FERNAND MAJOREL----------------------------------------------------1975
FERVID----------------7---3", BIC--------------------------------OR
---1960------BG/UG----A---T
FESTIVAL FANFARE-------SPORT-----------------------------PB---1982
FESTIVAL ROUGE--------12/16--HT---BIC-------------------DR
---1980
FESTIVITY----------------24---3", BIC--------------------------OB
---1980-----BG-------------A
FETICHE-----------12---2", BIC----------------------------------MR
---1962----------BG----M
FEU DENFER-------------17/25---2.75+"-----------------------OR
---1958-------UG/SG---T
FEU DE BENGALE--------17/25---CUPPED---2.75+"--------LP
---1951---VG------A---T
FEU DE JOIE--------17/25---2.75+", BIC-----------------------MR
1951-----VG
FEU FOLLET------------CUPPED--------------------------------MP
---1953-------VG-------A
FEU FOLLET-------------------------------------------------------OR
----1989-------------------A
FEU MAGIQUE------------18-------------------------------------MR
---1956------VG-------A---T
FEU ROUGE-----------12/16---2.75+"--------------------------MR
---1956
FEUERLAND---------25---CUPPED---2.5"--------------------OR
----1977------------------A
FEUERREITER---------12/16---2.75+", BIC-------------------MR
---1968----UG----A---T
FEUERSCHEIN, CLIMBING------------------------------------MR
---1936
FEUERSCHEIN----------------------------------------------------MR
---1930-------BG
FEUERSTURM-------------1.5-2.75"-----------------------------OR
---1900-------------------A
FEURIO, CLIMBING----------------------------------------------OR
---1963
FEURIO-------------30---CUPPED-------2.5", BIC-------------OR
---1956---8.0---BG---------A---L
FEVER-------------40+---2.75+"-----------------------------------DR
---1982-----UG------------B
FIAMETTA----------------------------------------------------------DR
---1962---------------------M
FIAMMA---BIC----------------------------------------------------OR
---1948------------VG
FICKSBURG--------------------------------------------------------OB
---1994
FIDELIO-------------17/25, BIC-----------------------------------AB
---1961
FIDELIO-----------------------35---HT---1.5-2.75"--------------OR
---1964---7.5----UG-----A---T
FIELD OF DREAMS---------8/14---BIC------------------------MP
---2003------------------A
FIERY STAR--------------------------------------------------------RB
---1995
FIESTA CHARM------------------------------------------------------
FIESTA FLAME------------15---3"------------------------------MR
---1978------BG------------A---L
FIFI---------------6/14---2.75+", BIC-----------------------------AB
---1993----UG-------------B---T
FIGMENT------------26/40---4", BIC------------------------------M
---1998-----UG------------A---M
FILLETTE----------17/25---1.5-2.75", BIC---------------------MP
---1965-----------------B
FINAL--------------21---HT---3.5, BIC--------------------------OP
---1964---------CG-----------L
FINKENRECH----------17/25-------------------------------------MP
---1989-----------------BW---1988
FIONA LYNCH------17/25---3, BIC-----------------------------W
---2003---BG---A---M
FIONAS AFFECTION--------G/D---26/40---3.5"---S--------PB
---2001-----BG/SG---A---M
FIONA-------------24---HT---3"----------------------------------MR
---1976-----UG-----A---T
FIORONA---------------------------------------------------------------
FIRE N ICE------------40---HT---1.5-2.75"--------------------RB
---1987----BG--------------A
FIRE BIRD------------6/14---1.5-2.75", BIC--------------------RB
---1992-----UG-----------------M
FIRE FLAME-------------4/11---4"-------------------------------OR
---1958----------------------M
FIRE KING------------AARS--48--HT--2.5", BIC-------------OR
---1959---7.1-----------A---T
FIRE OPAL-------20/25---CUPPED---1.5-2.75", BIC---------OR
---1955----------VG---A
FIRE QUEEN-----------17/25---1.5-2.75", BIC-----------------DR
---1963-----------VG/BG
FIREBEAM----------14---2.5", BIC------------------------------RB
---1960----------VG---B---T
FIREBIRD----------12/18---2.3-3", BIC-------------------------OB
---1960-----------VG
FIREBURST-----------41+---4.5", BIC-----S--------------------OR
---1993---7.7---BG-------A---T
FIRECRACKER-----------14---4.5"------------------------------MR
---1956---7.4---BG--------A---L
FIRECREST, CLIMBING----------------------------------------MR
---1969
FIRECREST----------------35---3", BIC-------------------------MR
---1964---5.2---VG------------L
FIREFLAME-------------65/70---2.5-3", BIC-------------------MR
---1954---7.3---VG-------A---M
FIREFLY-----------22---CUPPED---3.5"------------------------YB
---1975------UG----------A
FIRST CHOICE--------7---5", BIC-------------------------------OR
---1958----------SG---T
FIRST EDITION---------AARS---28---2.5"---------------------OP
---1976---8.3--UG-------A---M
FIRST KISS-----------15/25---2.75+", BIC----------------------PB
---1991---8.2---7.3---BG---A---L
FIRST OFFERING--------15---2.5"------------------------------DR
---1975----BG-------------A---L
FLAIR----------------------------------------------------------------YB
---1993
FLAMBEE-----------25/30---1.5-2.75", BIC--------------------OR
---1954----------VG/BG
FLAMBOYANT---------------------------------------------------MR
----VG
FLAME DANCER----------17/25---1.5-2.75"------------------OB
---1976-----------------A
FLAMEBURST----------44/5---2", BIC-------------------------DR
---1961---------VG----A---T------------?
FLAMECHE--------------------------------------------------------OR
FLAMENCO-----------21---3.5", BIC----------------------------LP
---1960---6.5----------A
FLAMINA-------------17/25---2.75+"---------------------------MY
---1964------UG/BG---
FLAMING ARROW-------17/25---1.5-2.75"-------------------OR
---1965---6.8---VG---A---M
FLAMING HEART-------------------------------------------------PB
----1995
FLAMING RUBY-------60---3", BIC----------------------------DR
---1963-----BG
FLAMING TORCH-------------------------------------------------OP
---1999
FLAMINGO------------30---OPEN----BIC-----------------------OP
---1961------BG/VG
FLAMINGO---------------------------------------------------------MP
---1958-----------VG
FLAMMECHE---------2.75+"-------------------------------------OB
---1959-----------VG
FLANDERS FIELD---------12/16---1.5-2.75"---BIC----------DP
---1990---UG--------A---T
FLAPPER-----------4/7---3", BIC---------------------------------LP
---1998----CG----------------5
FLASHLIGHT----------28---3.5"---------------------------------OR
---1974----------------A---T
FLEETWOOD-----------32---HT---1.5-2.75", BIC-------------OB
---1989---6.0---7.0----A---M
FLESH TAITO--------25/30---CUPPED---2.75+", BIC-------OB
---1988-----BG------------A---M
FLEUR COWLES--------35---3"----------------------------------LY
---1972-----------------A
FLICKER------------------------------------------------------------AB
FLIGHTY-------------12/16---1.5-2.75", BIC--------------------M
---1969-------VG
FLIMO----------------------------------------------------------------LP
---1990
FLIRT----------------35/40---1.5-2.75", BIC---------------------MR---1952-----UG------------A---T
FLIRTATIOUS------------------------------------------------------PB
---2003
FLIRT----------------------------------------------------------------MP
---1990
FLORABELLE-------33---2.75+"---------------------------------OP
---1964-------VG/BG------A
FLORADORA, CLIMBING--------------------------------------OR
---1951
FLORADORA-----------AARS---25---2" BIC------------------OR
---1944---6.0----BG-------A---T
FLORAL CHOICE-------------------------------------------------AB
---1982
FLORANGE--------------------------------------------------------MR
---1990
FLORANJE-----------23---3"---FLAT ---------------------------OR
---T
FLORENCE LORRAINE--------41+---HT---2.75+"----------AB
---1973----VG-------A---T
FLORENCE----------------------------------------------------------LP
---1987
FLORENTINA-----------4/11---2.75+"---------------------------PB
---1938---------VG-----T
FLORESCENCE----------------------------------------------------OB
FLORETT-------------17/25---2.75+"-----------------------------OP
---1983------------------A
FLORIDA SUN-----------26/40---1.5", BIC--------------------MY
---1997-----CG--------------A---M
FLORIDA VAN SCHARBEUTZ---17/25---HT---2.75+",---OB
---1957---5.9---BG---T
FLORIMEL---HT, BIC--------------------------------------------MP
---1958---------VG
FLORI----------------------------------------------------------------OB
---1997-----UG---T
FLORRIE JOYCE-----------40/50---1.5-2.75", BIC------------DP
----BG
FLOSSIE--------------15/25---1.5", BIC-------------------------MP
---1997------------------A---M
FLOWER POWER-------------------------------------------------MP
---1995
FLUFFY RUFFLES---------12/16---BIC-------------------------PB
---1935------VG------------A---L
FLUORESCENT--------33---CUPPED---1.5-2.75"-----------MR
---1977-----SG/BG
FLUORETTE--------22---3-3.5"----------------------------------OR
---1971---------BG----A---M
FOC DE TABARA--------33--------------------------------------DR
---1969
FOLIE DESPAGNE--------20---2", BIC-----------------------YB
---1965------------------A
FOLKESTONE--------44---HT---4.5"---------------------------DR
---1936--------SG/BG-------B
FOLLETTO-------------------------------------------------------------
---1961
FONDANT CASCADE---------P---15/26--1.5", BIC---------MP
---1996--SG----A---L
FONDLY---------20---HT---1.5-2.75", BIC / S-----------------LP
---1985----UG-------A---M
FOR YOU---------30---HT---1.5-2.75"---------------------------W
---1999-------------------A---M
FOREST QUEEN--------------------------------------------------DP
---1997
FOREVER AMBER----------15---4"----------------------------OB
---1975--------VG-------B
FOREVER ROYAL----------G/D---12/16---2", BIC-----------M
---2001------------UG-------A---T
FOREZ ROSE------------12/16---BIC--------------------------MR
---1964--------VG
FORTSCHRITT-----------12/16---2.75+", BIC----------------YB
---1933--------BG/VG------A---M
FOXTROT-------------4/7---3", BIC / S------------------------OB
---1998---7.6---CG---A---T
FRAGANT DELIGHT---------22---3"--------------------------OP
---1978---7.9-------------B
FRAGANT MIST-----------35---HT--1.5-2.75"----------------W
---1984---UG---B
FRANCAIS----------12/16---BIC--------------------------------OP
---1951----------VG
FRANCA------------------------------------------------------------PB
---1961
FRANCES PERRY-------------26/40---2.75+", BIC-----------W
---1995---------BG--A---L
FRANCETTE GIRAUD------------17/25--BIC-----------------OP
---1961-----------VG---M
FRANCOIS RABELAIS----41+---OGR--1.5-2.75", BIC----MR
---1998---7.5---7.2---BG----A---T
FRANKENLAND---------P---23--HT--BIC--------------------OR
---1982------BG-----L
FRANKFURT AM MAIN---------25---2.5-3", BIC----------MR
---1960---6.8----BG---A---M
FRANKIE----------------4/11---HT--4"--------------------------PB
---2001-----SG/BG---A---T
FRANKLIN ENGELMANN-------36---2.75+", BIC---------DR
---1970------VG---M
FRASQUITA-------------------------------------------------------OP
FRATERNITE------------25---3", BIC---------------------------PB
---1946----------VG---A---M
FRAU ANNY BEAUFRAYS-----------12/16---BIC----------MR
---1962-----------A---L
FRAU ASTRID SPATH, CLIMBING--------------------------DP
---1935
FRAU ASTRID SPATH----SPORT---------DP---1930-------BG
---------------------------L
FRAU DR ERRETH------------17/25--HT---BIC--------------DY
---1915--------SG
FRED HOLLOWS VISION---------------------------------------W
---1998
FREDDY------------25---1.5-2.75", BIC-------------------------OP
---1989-----BG-------------A---M
FREDENSBORG--------5---CUPPED---------------------------LP
---1995----BG
FREDERICKSBERGROSEN---------1.5-2.75"----------------DP
---1942-------VG
FREDERIK MEY--------------------------------------------------OP
---1980
FREDERIKSBORG------------------------------------------------OP
---1998
FREDRICH WORLEIN-----------17/25---2.75+"-------------DY
---1963----UG/BG---A---M
FRENCH LACE-----------AARS---30/35---HT---BIC---------W
---1980---8.1---7.8---BG---A---M
FRENSHAM------------15---1.5-2.75", BIC--------------------DR
---1946---6.5---VG-------A---T
FRENZY---------------25---2"-------------------------------------RB
---1970-----------------A
FRESCO-------------HT---3"--------------------------------------OB
---1968---8.0---VG-------A---T
FRESHAM, CLIMBING-----------------------------------------DR
---1958
FRESHAMS COMPANION-------18---1.5-2.75", BIC------DP
---1952---SG-----A---M
FREUDENTANZ-------------1.5-2.75"-------------------------MR
---1973---------BG----B
FRICTION LIGHTS--------15/25---2.75"----------------------YB
---1987----UG---A
FRIEND FOR LIFE----------6/14---1.5-2.75", BIC------------PB
---1993---BG/CG---A---M
FRIMOUSSE---------------4/11--- 1.5-2.75", BIC-------------OP
---1959-------VG/BG----A
FRISCO-----------26/40---M/F---1.5-2.75"--------------------MY
---1987---7.3---5.5---SG---A
FRISETTE---------12/16---BIC----------------------------------OR
---1964------------M
FRIVOLE-----------41+------------------------------------------MR
---1958------------VG---L
FROHSINN-------20---2.75+", BIC-----------------------------AB
---1961-----BG/VG---A
FROLIC-----------21---2.5", BIC--------------------------------MP
---1953---7.9---BG-------A
FROLIC-------------------------------------------------------------PB
---1995
FROSTY MORNING-------15/25---1.5-2.75", BIC-----------W
---1997---BG-----A---T
FROY-----------12/16---OPEN---1.5-2.75"--------------------OR
---1972----VG-------------A
FRUIT BUFFET---------------------------------------------------YB
FRUITE-------------------------------------------------------------OB
---1984
FUCHSINE GUY---------12/16----2.75+", BIC---------------M
---1930
FUEGO-------30---1.5-2.75", BIC------------------------------OR
---1964
FUGGERSTADT AUGSBURG------12/16---1.5-2.75"-----OR
---1985------A
FUGITIVE----------12/16---OPEN---BIC---------------------YB
---1965-------VG/BG
FUNKENMARIECHEN----------17/25------------------------YB
---1973------UG/BG------------A
FUNNY GIRL----------------------------------------------------OB
---1998
FURE-DAIKO-----CL---17/25---CUPPED---1.5-2.75"-----OP
---1974---VG---A---T
FUSILIER-------AARS---40---3-3.5", BIC-------------------OR
---1957---7.0---VG---A---M
FUTURA------------------------------------------------------------M
---1994
FYFIELD PRINCESS-------15/25---1.5-2.75", BIC--------MY
---1994---UG--------A---T
G. P. & J. BAKER------36---FLAT---1.5-2.75", BIC-------OP
---1984----BG--------------A--M
GABRIELLA-------------33---CUPPED---3"----------------MR
---1977-----BG/VG---A
GABYCHETTE-----------17/25---HT---1.5-2.75", BIC-----RB
---1960--------------A---L
GALA CHARLES AZNAVOUR-------------------------------LP
---1997
GALA DAY--------------4"--------------------------------------OR
---1966--------UG----A
GALA SUNRISE-----------26/40---1.5-2.75", BIC-----------RB
---1997-----UG-----------------T
GALA-----------------28/34---HT---3-3.5"---------------------PB
---1973-----VG/UG---A
GALAXY----------------------------------------------------------YB
---1995
GALINA------------------17/25---1.5-2.75"---------------------AB
----A
GALLAGHER---------41---2.5"---------------------------------RB
---1979-------BG-------A
GALLANT-----------17/25---3-3.5", BIC----------------------MR
---1968-------------------A
GAMIN DE PARIS---------17/25---2.75+", BIC-------------DR
---1964-------VG/UG
GAMINE-------------17/25---1.5-2.75"-------------------------OP
---1961-------VG-------A
GANY-----------------1.5-2.75"----32---2.5"-------------------DR
---1975---VG/UG-----A---M
GARDEN DELIGHT-----34---ROSETTE---3.5-4", BIC---DP
---1956----SG/VG---A
GARDEN PARTY-----------------------------------------------MR
---1999
GARDEN PRINCESS----------12/16--------------------------MY
---1961----------------M
GARDEN SUPREME-----------32---1.5-2.75", BIC---------OB
---1959-------VG----L
GARDENERS SUNDAY--------20---3"---------------------MY
---1975-----------------A
GARNETTE SUPREME--------35/40---2.5-3"---------------DP
---1954---UG/CG---A----M
GARNETTE, CLIMBING---------------------------------------DR
---1954
GARNETTE------------------50---1.5"--------------------------DR
---1951---6.8--BG---A---M
GARNIA----------------------48---4.5"---------------------------DP
---1970-----VG-----------------B
GARRY BROWN----------15/25---1.5-2.75", BIC-----------MR
---1997-----UG------------B---M
GARTENDIREKTOR GLOCKER----41+---2.75+", BIC----OR
---1957---7.9---VG---A
GARTENSTOLZ-------------8/10---2.75+", BIC---------------OP
---1945----UG/VG------------A---M
GARTENZAUBER-----------2.75+"--------------------------------
----1961-------------L
GARTENZAUBER---------35---HT---2.75+"-----------------MR
---1984-----UG------------A
GARY LINEKER---------12/16---1.5-2.75", BIC-------------OB
---1991----UG------------A---M
GAUDIA------------15---4", BIC---------------------------------MP
---1946----VG-------------A---T
GAVNO----------20---1.5-2.75"----------------------------------OB
---1988--------BG
GAVROCHE----------2.75+"-------------------------------------OB
---1963---------VG
GAY DICKY-------------------------------------------------------OB
---1956----------------------M
GAY HEART-----------25---HT---2.75+", BIC----------------MP
---1951---VG/UG----A---M
GAY MAID-------------26---BIC---------------------------------OR
---1969
GAY NINETIES---------CL---65---2-2.5", BIC---------------MR
---1955---UG--------B---8
GAY PRINCESS---------AARS---17/25---2.75+", BIC------LP
---1967---7.1---VG---A---M
GAYLE--------------------------------------------------------------W
GAYTIME------------17/25---2.75+"----------------------------RB
---1966---6.9----------A
GEISHA GIRL----------25---3.5", BIC-------------------------MY
---1964---5.7
GEISHA-------------12/16---2.5-3", BIC------------------------MP
---1964---7.0---BG--------M
GELBE HOLSTEIN-------20---3", BIC-------------------------LY
---1951------UG/VG-----A---T
GELRIA----------------------------------------------------------------
---1974
GENE BOENER----AARS--P---35---HT---1.5-2.75", BIC---MP
---1968---8.3---8.1---UG
GENE JONES-------------------------------------------------------W
---2000
GENTLE ANNIE---------6/14---2.75+", BIC-------------------M
---2000----UG------------A---M
GENTLE------------26---HT---2.5-3", BIC---------------------OP
---1960------VG/CG-------L
GEOFF BOYCOTT----------35---3.5"---------------------------W
---1974----BG/CG-------------A
GEORGE BURNS------------26/40--3-3.5", BIC-------------YB
---1996---7.7---7.3---UG---A---T
GEORGES CHOICE---------35/40-----------------------------MR
---1979----------VG/BG----A---L
GEORGETTE-------------17/25---1.5-2.75"---------------------W
---1983-----------------A
GEORGETTE--------------35---2.75+"-------------------------MR
---1995
GEORGIE ANDERSON------------------------------------------OB
--1983---------UG---A
GERALDINE-------------20---1.5-2.75"------------------------OB
---1982-----UG------------A
GERANIUM RED-------50---4", BIC--------------------------OR
---1947---6.6---BG-------B---M
GERO--------------17/25---1.5-2.75"----------------------------RB
---1984
GERTRUD WESTPHAL, CLIMBING------------------------OR
----1961-----------------A
GERTRUD WESTPHAL------------5/7---3"------------------OR
---1951-----BG/SG---A----L
GERTRUD---------------------------------------------------------DR
GERTRUDE RAFFEL--------15/20---HT---2-3", BIC------DP
---1956---8.3---BG---A---M
GERTRUDE REUTENER---------------------------------------DP
---1954------VG
GIGOLETTE-----------12/16---1.5-2.75", BIC----------------RB
---1953----VG-------------A
GILBERT F. LEVY--------17/25-------------------------------MR
---1958-------VG----------T
GILDA---------15/25---1.5-2.75"--------------------------------LP
---1987-------SG------B
GINA-------------6---BIC-----------------------------------------DR
---1960----VG/UG-----A---M
GINGER MEGGS------------------------------------------------OB
--1962
GINGER TODDLER--------------------------------------------OB
---1996
GINGER-------------28---CUPPED---4", BIC----------------OR
---1962---7.4---BG---A---M
GINGERNUT------------P---43---1.5-2.75"---------------------R
---1988---BG----M--------------A
GINGERSNAP------------35---4"--------------------------------OB
---1978---7.4---7.5---BG---A---T
GINSKY-------------SPORT---------------------------------------PB
---1983
GIPSY MAID-----------4/11---BIC-------------------------------DP
---1955---7.8----------A---L
GIRL GUIDE-------------------------------------------------------OP
GIRL SCOUT------------50---3.5-4"-----------------------------MY
---1961---5.6---BG------A---T
GIRLS BRIGADE----------28---ROSETTE---2"-------------OR
---1993------BG---L
GISELA----------------56---BIC-----------------------------------OP
---1961-----BG/CG------L
GLACIER-------------28---CUPPPED---4.5"--------------------W
---1952---6.8---VG---A---M
GLAD TIDINGS-----------20---HT---1.5-2.75", BIC---------DR
---1988---8.0---7.7--------M
GLADNESS-----------25---2.75+", BIC--------------------------PB
---1959------UG
GLAMORGAN---------14---1.5-2.75", BIC---------------------OP
---1994----UG/CG---A---M
GLEAMING-------------6/8---4", BIC---------------------------DY
---1958---SG--------------B
GLENFIDDICH----------25---4"----------------------------------DY
---1976---5.3---6.0---A
GLENGARRY-----------32---2.75+"-----------------------------OR
---1969----CG/BG---L---A
GLENDA MARIE---G/D---17/25---3.5", BIC-------------------W
---1999-------BG----6
GLETSCHER--------------HT---2.75+", BIC---------------------M
---1955----VG--------B---M
GLOBE--------------20---2", BIC---------------------------------MR
---1956---BG/VG--------------A---L
GLORIA--------------26/40---2.75+", BIC------------------------M
---2000----CG--------A---M
GLORIMONTANA-------17/25---1.5-2.75"--------------------OR
---1974
GLORIOUS---------------15/17---1.5-2.75", BIC---------------DP
---1947---7.5---BG---A---M
GLORY OF CEYLON----------14---1.5-2.75", BIC-----------OP
---1967-----------------A
GLOW IN THE DARK--------------------------------------------RB
---2003
GLOWING ACHIEVEMENT------------------------------------MR
GLOWING EMBERS----------35---1.5-2.75"------------------YB
---1985---BG/VG---A--M
GLUCKSKIND--------------12/16--1.5-2.75"-------------------DR
---1952--------VG
GNOM WORLD----------------------------------------------------OP
GNOM------------------17/25---1.5-2.75"-------------------------OP
---1957
GOLD BADGE, CLIMBING------------------------------------MY
---1991---6.5
GOLD BADGE----------38---CUPPPED---3"------------------MY
---1978---6.9---6.8---VG---M
GOLD CUP----------AARS---28---4", BIC---------------------DY
---1957---5.9---BG---A---M
GOLD MAGIC--------15/25---1.5-2.75", BIC------------------DY
---1990---BG--------------A---M
GOLD NUGGET-------17/25---HT---1.5-2.75"----------------DY---1972---------VG-----------T
GOLD REEF--------------------------------------------------------DY
---1994
GOLD SPRAY---------17/25---1.5-2.75"-----------------------MY
---1971-----BG---M
GOLD STRIKE---------30/35---HT---2-2.5"-------------------MY
---1955-----BG/CG---------------A---L
GOLDBEET--------------------------------------------------------DY
---1974
GOLDEN BOUQUET---------------------------------------------DY
GOLDEN COLONEL---------------------------------------------OB
GOLDEN CORONET---P---17/25---HT---1.5-2.75", BIC---MY
---1967---6.2---VG---A---L
GOLDEN CURLS-----------P---17/25---1.5-2.75", BIC-------YB
---2000----------CG---M
GOLDEN DANCE-------------------------------------------------MY
---1991
GOLDEN DELIGHT-----------58---3"--------------------------MY
---1956---5.8----------A---M
GOLDEN FICTION-----------------------------------------------MY
---1958---------SG
GOLDEN FLAME------------------------------------------------MY
GOLDEN FLEECE---------38---4.5", BIC---------------------MY
---1955---6.9---BG---B---L
GOLDEN FLIPPER----------------------------------------------DY
GOLDEN GALAXY---------------------------------------------MY
---1997
GOLDEN GARNETTE--------33---3-4", BIC----------------DY
---1960---7.0--BG---B---L
GOLDEN GLAMOUR----------P----25---HT---2.75+"-----MY
---1951--------BG/UG---A--L
GOLDEN GLOVES----------------------------------------------DY
---1991
GOLDEN HOLSTEIN-------------------------------------------DY
----1989
GOLDEN HOPE---------------15/25---1.5-2.75", BIC-------YB
---1998---UG--------------A---M
GOLDEN JET---------------------------------------------------------
---1992
GOLDEN JUBILLE------------17/25---3", BIC--------------MY
---1948---6.5----BG-------A---M
GOLDEN LACE-----------28---HT---3, BIC-----------------DY
---1962---5.6---BG-------A---M
GOLDEN LEOPARD---------18/25---HT---2"---------------MY
---1976---CG---------------A---L
GOLDEN OLDIE--------17/25---1.5-2.75", BIC-------------AB
---1998---BG---------------A---L
GOLDEN PERFUME--------50---2.75+", BIC--------------MY
---1959------VG--------A----M
GOLDEN PHEASANT-------40---4"---------------------------OB
---1951----CG--------------A---L
GOLDEN PROMISE---------------------------------------------DY
---1972
GOLDEN QUILL-------------------------------------------------DY
---2002
GOLDEN RAIN----------20---HT---2.75+", BIC-------------MY
---1951--------BG----T
GOLDEN SHEEN---------17/25---HT--BIC-------------------MY
---1966
GOLDEN SHOT-----------24---4"-------------------------------DY
---1973------------------A
GOLDEN SLIPPERS--------AARS---23--HT--3", BIC------YB
--1961---6.7--A---L
GOLDEN SPRITE----------15/25---2.75+", S-----------------DY
---1992---UG-------------A---T
GOLDEN SURPRISE------SPORT----------------------------MY
---1978
GOLDEN TIMES--------------40+---1.5-2.75"----------------MY
---1985------------------B
GOLDEN TREASURE, CLIMBING--------------------------MY
---1976
GOLDEN YEARS------------46---2.75+", BIC---------------MY
---1988---7.8---BG--------A---M
GOLDENE AUE-------------17/25---2.75+"-------------------DY
---1964---7.8---7.4
GOLDENE GRUSS AN AACHEN---17/25---HT--2.75+", BIC
---1935---VG---A
GOLDENE JOHANNA TANTAU------4/11--3.5", BIC-----MY
---1945---BG----A---L
GOLDENER ADLER------------12/16---1.5-2.75", BIC-----MY
---1965
GOLDENER REITER----------25---2.75+"--------------------MY
---1969--------VG----B--T
GOLDENER SOMMER 83---------17/25---2.75+"-----------MY
---1983
GOLDFINGER-------------18---3.5-4", BIC--------------------DY
---1992-----CG-------------A---L
GOLDGLEAM-------------18---3.5-4", BIC--------------------MY
---1966---8.0-----------B
GOLDIE----------------------P-----25/30---4"--------------------MY
---1958---VG/BG---A---M
GOLDILOCKS, CLIMBING-------------------------------------MY
---1951
GOLDILOCKS---------------45---3.5", BIC--------------------MY
---1945---6.6-----------A---L
GOLDING WEDDING--------------------------------------------DY
---1990
GOLDMARIE, CLIMBING--------------------------------------YB
---1998
GOLDMARIE----------------12/16---2.75+"---------------------DY
---1958---5.9---BG-------B---T
GOLDMARIE----------35------------------------------------------DY
---1984---7.4---BG---------A---M
GOLDMOSS-----------17/25---1.5-2.75"-----------------------MY
---1972---7.2--BG---B---L
GOLDQUELLE 88-------------------------------------------------DY
----1988
GOLDSCHATZ-----------15/25---2.75+"------------------------DY
---1998---BG----A---M
GOLDSCHATZ-----------17/25---2.75+", BIC-----------------MY
---1964------BG/UG
GOLDSCHMIED--------------------------------------------------DY
---A
GOLDSTIEN-------------------------------------------------------OB
---1983
GOLDSTUCK-----------40/45---BIC----------------------------MY
---1961----UG/VG-----B---M
GOLDTOPAS-------------17/25---3.5", BIC--------------------MY
---1963---7.0-----VG/BG
GONDUL------------------18---1.5-2.75", BIC------------------MR
---1969-------VG
GOOD COMPANION--------30---2.75+", BIC----------------MR
---1961---UG---A
GOOD LIFE--------------30---HT---2"--------------------------OR
---1970-----SG-------------A
GOOD LUCK-------------------------------------------------------W
---1996
GOOD MORNING------------------------------------------------OB
---1995
GOOD NEWS-----------------------------------------------------MY
---1992
GOOD SHOW------------------------------------------------------OP
---1998
GOOD VIBES-------------17/25---1.5-2.75", BIC--------------MP
---1999----CG---------------A---M
GOPIKA---------------------17/25---1.5-2.75"-------------------OP
---1969----VG/BG--------------A
GORDON DRAKE-----------17/25---BIC-----------------------DP
---1956-------------T
GORDONS COLLEGE---------26/40--2.75+", BIC----------OP
---1992----UG-------------A---M
GOTENHAFEN------------12/15---1.5-2.75"-------------------MP
---1940-----UG/SG
GOYA-------------------30---HT---5"------------------------------W
---1976-------VG---A
GRACE ABOUNDING--------------12/16---BIC----------------W
---1968-----------------A
GRACE KIMMINS-------------28---3"--------------------------MR
---1973---------BG/BG----M
GRACIE ALLEN-----------G/D---26/40---HT---4.5"----------PB
---1999---7.4---6.2---UG---A---T
GRAN PARADA--------25---OPEN---1.5-2.75"--------------MY
---1967----BG/UG-----L
GRAND CANYON-------------------------------------------------OP
---1998
GRAND PRIZE------------------------------------------------------W
---2003
GRANDE ROUGE-------------17/25---1.5-2.75"---------------DR
---1973---BG----------------A----M
GRANDPAS DELIGHT-------12/16---1.5-2.75"-------------OB
---1984---BG--------A
GRASTEN-----------------------------------------------------------W
GRATULATION-----------------------------------------------------
----1985
GRAZIELLA----------17/25---OPEN---1.5-2.75", BIC------OB
---1960----VG/BG-------------A
GREAT EXPECTATIONS---------------------------------------MP
---1993
GREAT NEWS---------------33---4"------------------------------M
---1973----------------B---M
GREAT ORMOND STREET----------------MY---1991
GREEN FIRE----------------13---3"------------------------------DY
---1958---7.0---BG-------A---M
GREENALLS GLORY-------------------------W---1989
GREENSLEEVES-------15---FLAT---2.75+"------------------W
---1980---6.2---VG/UG
GREETINGS--------------------------------------------------------M
---1999
GREGOR MENDEL----------17/25---BIC----------------------OP
---1955--------BG
GRETA--------------------------------------------------------------W
---1995
GREY DAWN-----------------45---3-4"--------------------------M
---1975-----BG------M
GRIDO------------------------------------------------------------------
---1972
GRIMALDI---------------------------------------------------------PB
---1997
GRISBI--------------------------------------------------------------MY
GRISELDIS----------------------------------------------------------W
GRUPPENKONIGIN-------------17/25---2.75+"--------------PB
---1935----VG/BG
GRUSS AN AACHEN, CLIMBIMG---------------------------LP
---1937
GRUSS AN AACHEN------------40/45---3-3.5"---------------LP
---1909---8.3-----------A---L
GRUSS AN AACHEN--------------------------------------------W
GRUSS AN BAYERN----------12/16---1.5-2.75"------------MR
---1971---BG/UG--------------A
GRUSS AN LORRACH----------------------------------------------
---1983
GRUSS AN MAIENGRUN-------------------------------------OR
------
GRUSS AN MUNCHEN---------------------------------------------
----1962
GRUSS AN STEINFURTH---------17/25---BIC--------------MY
---1961
GRUSS AN STUTTGART----------17/25------1.5-2.75"----MR
---1976---VG/BG---A---M
GUERREIRO--CL-------------------------------------------------DR
GUGLIELMO MARCONI---------------------------------------OP
---1996
GUINEVERE---------------OGR---26/40---2.75+", BIC-----AB
---2001---7.6---7.0-SG-----B---T
GUINGUETTE---------------HT----------------------------------PB
---1958--------VG
GUITAR CL.-----------------------------------OB---1974
GUITARE-----------------17/25---1.5-2.75"--------------------OB
---1963---UG/BG---------B
GUNDY----------------12/16---BIC-------------------------------DP
---1966---5.3---VG--------A
GUNSEI----------------CL---13/15---CUPPED---BIC----------PB
---1986----VG----A---T
GUSTAV FRAHM---------25---FLAT---3", BIC--------------MR
---1959---BG/UG---------------B
GUY DE MAUPASSANT-------41+---OGR---2.75+", BIC-MP
---1996--7.7---BG---B---T
GUY FAWKES------------15---3.5------------------------------YB
---1975-----------------B
GUY-GUY-----------------17/25---1.5"-------------------------- AB
---1966----CG------A---L
GUYSCLIFFE--------------12---1.5-2.75", BIC-----------------OP
---1984---BG-----B---T
GWEN MARIE--------------12/16---2.75+"---------------------RB
---1964-------B---T
GYLDENORANGE-----------17/25---2.75+"-------------------OB
---1952----------------M
GYMPIE, BEAUTY--------------BIC-----------------------------DR
---1962
GYMPIE---------------------17/25---BIC--------------------------PB
---1953---------VG/BG-----A
GYPSY FIRE--------------------------------------------------------RB
---2003
GYPSY MOTH--------------35---HT---1.5-2.75", BIC---------OP
---1968
GYPSYS WINE CUP -------------BIC--------------------------MR
---1968-----------------A---L
H.C.ANDERSON-------12/16---CUPPED---2.75+", BIC-----DR
---1986---8.0---7.9---A---T
HAAKSBERGEN------------12/16---1.5-2.75", BIC----------MY
---1961-----------M
HABITAT FOR HUMANITY------------------------------------OB
---2003
HAIKU---------------------38---HT---1.5-2.75", BIC, / S------MY
---1987----UG--------------A---M
HAKUUN---------------P---15---2"---------------------------------W
---1962------BG-----------A---L
HALALI-------------12/16---2.75+"-------------------------------DP
---1956----SG------------5-6
HALLEYS COMET-----------20---1.5-2.75"------------------MR
---1986------------------A
HAMBLEDEN------------8/14---4.5", BIC----------------------PB
---2000-----UG--------A---T
HAMBURGS LOVE-------28---3"------------------------------DY
---1974-----CG-------------B---L
HANA-BUSA---------18---FLAT---1.5-2.75", BIC------------OR
---1981----BG
HANAGASA-------------23------4-4.5"--------------------------OR
---1978-----VG-------------A---M
HANA-GASUMI---------13---FLAT---1.5-2.75", BIC---------W
---1985-----BG---A
HANAKAGO-------------1.5-2.75"-------------------------------OR
---1972-----VG/BG-------------A---T
HANAMORI-----------20/25---HT---2.5"-----------------------RB
---1977-----------------BG---A
HANNAH GORDON--------17/25---2.75+"--------------------PB
---1983---8.7---8.0---BG---A---T
HANNAH HAUXWELL---------P---26/40---1.5"-------------OP
---1991---BG-----------A
HANS ERNI---------------------------------------------------------OP
---1992
HANSESTADT BREMEN-------------47---2.75+", BIC------OP
---1958---BG------------A---T
HANSESTADT LUBECK------------17/25---3.5"-------------MR
---1962-----UG------------A---T
HAPPY EVENT-----------12---3", BIC--------------------------PB
---1964----------------------M
HAPPY EVER AFTER---------12/16---1.5-2.75", BIC-------PB
---1999----BG---------A---M
HAPPY RED------------4/11--------------------------------------OR
---1960---------------------------M
HAPPY RETIREMENT-------17/25---2.75+", BIC-----------LP
---2000----BG------------A---T
HAPPY TALK-------------17/25---1.5"-------------------------MR
---1973---------BG/UG--------A
HAPPY WANDERER--------------------------------------------MR
---1972-----------------A
HARKNESS MARIGOLD----------35---1.5-2.75", BIC------OB
---1986------------A---T
HARLEKIN---------------------------------------------------------YB
HARLEW---------------------------------------------------------------
---1973
HARLOW CARR--------------------------------------------------MR
---1997
HARMAN INERNIS-----------------------------------------------DP
HARMAN---------------------------------------------------------------
----1991
HAROLD MacMILLAN--------------18--1.5-2.75", BIC-----OR
---1988--8.5---7.2---BG---A---M
HARPER ADAMS------------------------------------------------MY
---2002
HARRIET POULSEN-------------4/11--------------------------MP
---1912--------VG
HARRY CAMPBELL-----------45---3.5"-----------------------DP
---1977--------VG/BG-----B
HARRY EDLAND-----------26---4"------------------------------M
---1975-----------------B
HARUNOMAI------------------------------------------------------MP
HARVEST FAYRE------------15/24---1.5-2.75"---------------OB
---1989---7.9---7.5---BG---A
HARVEST SUN-------------8/14---2.75+"/BIC----------------OB
---1997----BG/UG-----A
HARWOOD---------------------------------------------------------MP
---2002
HASSAN------------28---4"---------------------------------------MR
---1963----BG/UG------------A---T
HAURAKI------------P---15/25---1.5-2.75"--------------------OR
---1994---BG------------A---L
HAWAIIAN DELIGHT------17/25---CUPPED---1.5"--------OP
---1968--------VG/BG
HEART THROB------------41+---1.5-2.75"------------------------
---1966--------VG----B
HEARTBEAT 96-----------15/25---2"---------------------------AB
---1997----SG/UG------------A---M
HEARTBEAT-------------26---HRT---4.5"----------------------OP
---1970----------------A---T
HEARTH GLOW------------17/25---1.5-2.75", BIC-----------OR
---1996----BG/UG------T
HEAT WAVE--------------30---3.5-4.5"-------------------------OR
---1958---7.8---BG-------A---T
HEAVEN BOUND-----------17/25---OGR----------------------MP
---1999----------------------L
HEAVEN SCENT------------30---2.75+"------------------------OP
---1968---6.4-----------B
HEBE-----------------------------------------------------------------DP
---1941
HECKENFEUER---------------------------------------------------MR
---1984
HECKENGOLD--------------17/25---2.75+"--------------------DY
---1986-----------------A
HEIDEFEUER------------------------------------------------------DR
---1995
HEIDEGRUSS-------------17/25---2.75+", BIC----------------PB
---1937--------BG---T
HEIDELINDE-------------------------------------------------------M
---1991
HEIDESOMMER--------20---1.5-2.75"-------------------------PB
---1985---7.8---6.3---BG---B---T
HEIDEZAUBER----------17/25---2.75+", BIC-----------------DR
---1936----BG---A
HEIDMARIE-------------5/7----2.75+", BIC--------------------MR
---1945---BG---A---T
HEIGHT OF FASHION--------G/D---15/25---1.5-2.75"------YB
---2003---UG---A---M
HEIN EVERS, CLIMBING---------------------------------------MR
---1963
HEIN EVERS---------------17/25---BIC / S---------------------MR
---1957---UG---A---T
HEINZ ERHARDT----------25---3", BIC-----------------------MR
---1962---BG---A---T
HEINZELMANNCHEN--------35---2.75+"--------------------MR
---1983---BG---A---L
HELEN RHODES----------41+---3.75", BIC--------------------PB
---2000---UG---A---T
HELEN SUZMAN ROSE------------------------------------------LP
HELGA----------------------------------------------------------------W
---1975
HELGOLAND--------------12/16---1.5-2.75"-------------------MR
---1973-----------A---M
HELGOLAND-------------12/16---2.75+", BIC----------------MR
---1936----BG--- A---T
HEMAVATHY------------------------------------------------------OP
---1975
HEN KAUFFMANN---------------17/25-------------------------MP
---1954---VG----A---T
HENRI MATISSE-----------------------------------------------------
---1996
HENros------------------CL---15/25---1.5-2.75", BIC-----------DP
---1995---SG-----A---T
HENRY KING STANFORD------------15---1.5"--------------MR
---1973---SG
HENRY MORSE------------------12/16---2.75+", BIC---------DR
---1958---SG
HER MAJESTY--------------41+---1.5", BIC -------------------AB
---2001---BG------A---L
HERBERT WILSON------------------------------------------------W
---1967-------------A
HERFORDIA----------------17/25---1.5-2.75"-------------------DP
---1993------------A
HERIFLOR-----------------------------------------------------------LP
---1990
HERMELIA CASAS-----------30---1.5-2.75", BIC------------MP
---1956------------------M
HERSELF--------------18---4", BIC-------------------------------LP
---1966---SG
HERTFORDSHIRE GLORY-----------20---2.75+"------------YB
---1970-------------A
HESTER PRYNNE-------------------------------------------------DR
---1993
HESTIA-----------------------------------------------------------------
HEXHAM ABBEY-------------3.5"-------------------------------OP
---1975-------------B---M
HI DOLL-------------------------------------------------------------OR
---1995
HI FI------------------17/25----BIC / S----------------------------OR
---1958
HI SOCIETY--------------17/25---1", BIC------------------------LP
---1999---BG/UG---A--M
HIGH FIVE---------------26/40---2.75+", BIC--------------------M
---1999----SG------------T
HIGH SUMER-------------26---3"--------------------------------OR
---1978
HIGHLAND BEAUTY-----------12/16---3", BIC-------------MR
HIGHLAND CHARM------------12/16---3.5", BIC------------OP
---1956---BG-------A---T
HIGHLAND DANCER--------------------------------------------RB
HIGHLAND FLING------------22---4-4.5"----------------------OR
---1971-----------------A
HIGHLAND GLORY----------12/16---3", BIC----------------MR
---1956----------------A---T
HIGHLANDS ROSE------------6/14---1.5-2.75", BIC---------MP
---2000---- UG ----A---M
HIGHLIGHT---------24---2.5", BIC------------------------------OB
---1957----7.4---VG------A---L
HIGHTAE------------45/50---HT---1.5-2.75", BIC-------------PB
---1987-----------------B
HIKARI--------------------------------------------------------------------- -1969
HILDA RAHN------------26/40---1.5-2.75", BIC---------------LP
---2002-----------------A---SG
HILLS HILLBILLY-----------5/6---1-2", BIC-----------------MP
---1947---7.4----BG-------A---T
HILLARY FIRST LADY-----------------------------------------MR
---1997
HIMANGINI-------------17/25---OPEN---1.5-2.75"------------RB
---1963----VG-/BG-------------A---L
HINEMOA------------17/20---CUPPED---3-3.5", BIC--------RB
---1963-------BG----------A
HIPANGO--------------21---2.75+"-------------------------------YB
--1983---VG--------------A---T
HIROSHIMAS CHILDREN---------35---HT---2.75+"-------YB
---1985---7.3---8.0---BG---A
HIT PARADE------------16---4", BIC----------------------------OB
---1962-----------------------L
HOBBY-----------------17/25---2.75+", BIC---------------------OP
---1955---5.0---UG/BG--------A
HOCHSOMMER---------------17/25---BIC----------------------DP
---1960-------------L
HOLCOMBE HONEY--------17/25---1.5-2.75", BIC---------YB
---2001--UG----------A---T
HOLE IN ONE---------15/25---1.5-2.75", BIC------------------PB
---1997--------SG-----A---T
HOLIDAY-------------12/16---3-3.5", BIC-----------------------OP
---1948---6.1---BG-------A---M
HOLLYBANK-------3-3.5"---------------------------------------MR
---1966----UG-------------A---T
HOLSTEIN, CLIMBING-----------------------------------------MR
---1947
HOLSTEIN------------6---4", BIC--------------------------------MR
---1939------BG------------A---T
HOLSTENTOR----------17/25---2.75+"-------------------------OP
---1990
HONEY BOUQUET--------26/40--HT--4.5-5", BIC----------YB
---1999---7.8---7.2---SG---A---M
HONEY BUN----------17/25---1.5-2.75"-----------------------MY
---1973-----UG/BG-------------B---T
HONEY BUNCH--------HT---20---3"---------------------------DY
---1971-----------------A---M
HONEY BUNCH-------P---CUPPED--45---1.5", BIC--------YB
---1989-----BG-------------A--L
HONEY CHILD----------------------------------------------------AB
---1999
HONEY CHILE-----17/25---CUPPED---1.5-2.75", BIC------LP
----1964---7.3------------A---M
HONEY GOLD-------43---3-3.5----------------MY---1956----BG
-------------A---T
HONEY PERFUME--------AARS---25/30----------------------AB
---2004
HONEY---12/16---1.5"--------------------------------------------MY
---1955
HONEYFLOW-------4/11---BIC----------------------------------PB
---1957----BG-------------A---T
HONEYGLOW--------12/16---2", BIC--------------------------YB
--1956-------BG------------T
HONEYWOOD-----------------------------------------------------AB
---2002
HONIGMOND------40---ROSSETT---1.5-2.75", BIC--------MY
---1960---6.6---BG---A--T
HONORABLE KEN-------26/40---1.5-2.75", BIC-------------DY
---1974------CG------A---T
HOPE 98-----------P---15/25---1.5", BIC------------------------MR
---1998------CG/BG----------A---L
HORIZON----------17/25---OPEN---2.75+", BIC--------------OR
---1956---BG--------------A---M
HORRIDO---------17/25---2.75+", BIC--------------------------MR
---1963----BG------------A---L
HORSTMANNS BERFEUER---17/25---HT--2.75+", BIC--DR
---1954------M
HORSTMANNS JUBILAUMSROSE-----HT-----------------OP
---1954------------L
HORSTMANNS LEUCHTFEUER-------17/25--2.75+"-----DR
---1954---------M
HORSTMANNS ROSENRESLI-----17/25---2.75+", BIC----W
---1955---BG---A
HOSPITALITY-------15/25---2.75+", BIC----------------------RB
---1997----BG---------A---T
HOSTESS GISELA--------17/25---1.5-2.75"--------------------DR
---1973--- UG/BG ----B---M
HOSTESS---------12/16---2.75+", BIC---------------------------OP
---1960----UG--------M---T
HOT N SPICY---------CL----------------------------------------OR
---2001
HOT N SPICY--------6/14---1.5-2.75", BIC-------------------OR
---1991---7.4---7.1---SG---A
HOT CHOCOLATE--------------------------------------------------R
---1986
HOT COCOA--------25/30---2.75+", BIC-------------------------R
---2001-----VG-------------A---T
HOT LIPS------------------------------------------------------------DP
HOWARD FLOREY-------15/25---2", BIC---------------------AB
---1998----BG--------------A---T
HUGUNOT 300-----------------------------------------------------OB
HULA HOOP-----------15---1.5-2.75", BIC---------------------PB
---1990---5.3---5.0---UG------M
HUNGARIA--------------------------------------------------------MR
HUNTINGBURG---------------------------------------------------LP
---1997
HURRA------------17/25---1.5-2.75", BIC-----------------------OR
---1962---7.3-----BG----M
HVISSINGE-ROSE---------4/11---BIC--------------------------PB
---1943-----------BG---M
HYLO-----------28---2-2.5", BIC---------------------------------MP
---1961----BG-------------A
HYMNE---------38/52---2.75+", BIC----------------------------MP
--1964----T
I LOVE YOU----SPORT-------------------------------------------DP
---1981
IBIS----14/16--------------------------------------------------------OB
---1973
ICE MAIDEN----------15---3.5"-----------------------------------W
---1958----------------A---T
ICE WHITE, CLIMBING------------------------------------------W
---1968
ICE WHITE---------25---3", BIC----------------------------------W
---1966---7.7
ICEBERG, CLIMBING---------------------------------------------W
--1968---8.6
ICEBERG-------------17/25---2.75+", BIC------------------------W
---1958---8.8---BG`-------B---T
ICED GINGER----------45---4.5---------------------------------OB
---1971-----------------A
ICED PARFAIT--------40---1.5-2.75", BIC---------------------LP
---1972----------A---L
ICO PEARL----------------------------------------------------------PB
---1990
ICO TALK-----------------------------------------------------------PB
---1993
ICO----------------60/70----------------------------------------------M
---1986---BG--------------A---T
IDEE FIXE-----------15---2", BIC--------------------------------OR
---1980------BG-----------A---L
IDUN--------------41---CUPPED---2.75+", BIC----------------MP
---1969----BG
IGA ERFURT-----------12/16---1.5-2.75"-----------------------OP
---1966----
IISETA---------------35----1.5-2.75+"----------------------------MP
---1985-------- UG---M
ILARIA--------------12/16---HT-----------------------------------DP
---1962
ILDIKO----12/16---CUPPED1.5-2.75"-------------------------MR
---1971----UG---M
ILLUMINATION-----12---3"---------------- --------------------DY
---1970-----A---M
ILLUMINATION---------------------------------------------------AB
---1986
IMATRA-------------------------------------------------------------PB
---1930
IMMACULADA GALAN----60/70---2.75+", BIC-------------W
---1968
IMP----17/25---1.5"-------------------------------------------------RB
---1971--------------A
IMPALA-------30---CUPPED---2.5-3"---------------------------OP
---1972---BG
IMPATIENT---------AARS---20/25---1.5-2.75"----------------OR
---1982---7.8---7.3---BG---A---M
IMPOSANT----------------------------------------------------------MP
IMPROVED CECILE BRUNNER-----30--HT---1.5-2.75"---OP
---1948---6.0---A---M
IMPROVED LAFAYETTE------12/16--MR---1935---6.6----BG
---A---M
IN THE PINK------60---1.5-2.75", BIC--------------------------MP
---1988----BG--B---M
INATA----12/16----BIC--------------------------------------------OP
---1967--------VG
INCA DE MALLORCA----20------------------------------------MR
---1958----------CG-------L
INDEPENDENCE 76---------22---HT---3-4"-------------------MR
---1974---UL-------A---M
INDEPENDENCE, CLIMBING----------------------------------OR
---1960
INDEPENDENCE--------35---4.5", BIC------------------------OR
---1951---6.6----------A---M
INDIAN GOLD----------30/35---HT---3.5", BIC---------------YB
---1961---6.2----UG------A---M
INDIANA------------------------------------------------------------MP
INDRAMAN--------------------------------------------------------OR
---1990
INFANTANIA---------17/25---1.5", BIC-------------------------W
---1953-------------B
INGAR OLSSON------12/16---CUPPED---BIC---------------MR
---1931----VG/CG---A
INGE SCHUBERT-------------------------------------------------RB
---1994
INNER TEMPLE---------17/25---1.5-2.75", BIC--------------MR
---2000----CG------------A---M
INNER WHEEL-----------22---2.75+"----------------------------PB
---1984---8.1---7.7---BG---A
INNISFREE---------22---1.5-2.75", BIC-------------------------YB
---1964---VG--------------------T
INNOCENCE 96-------8/14---1", BIC---------------------------AB
---1997----BG-------------A---L
INNOCENCIA--------26/40---1.5-2.75", BIC--------------------W
---1987-----NBG
INNOVATION----------------------------------------------------------
---1973
INOA-----------------------------------------------------------------M R
---1958
INSEL MAINAU---------17/25---2.75+", BIC------------------DR
---1959-----------------A---L
INSPECTEUR JAGOURT---------25/30---2.75+"---------------M
---1932
INSPIRATION----------26/40---2.75+", S-----------------------AB
---1994-----BG----B---T
INTERAMA---------18---3"---------------------------------------DR
---1976---7.7---6.9
INTERJADA---------35---1.5-2.75", BIC------------------------DP
---1986----------------A
INTERNATIONAL HERALD TRIBUNE----------------------DY
---1995
INTRIGUE------AAARS---20----LG------------------------------M
---1982----7.0---6.7---B---M
INVINCIBLE-------20---LG---------------------------------------DR
---UG--------A
IODE------12/16---CUPPPED----LG-----------------------------DR
---1974---UA---T
IRANJA--------35---2", BIC---------------------------------------OR
----1984----BG-------L
IRENE SMITH---------26/40-----2.75", BIC--------------------OR
---1998-----BG---A---T
IRENE VIRAG--------4/11-------1.5-2.75", BIC----------------RB
---1999---BG---A---T
IRENE VON DENMARK, CLIMBING-------------------------W
---1970
IRENE VON DENMARK--------40---CUPPED---3"----------W
---1948---7.0---BG---A---T
IRENE SUPPRISE---------15/25---HT---1.5-2.75", BIC------AB
---1993-----UG---A---M
IRENE----------------------------------------------------------------DP
---1983
IRENE--------12/16-------------------------------------------------PB
---1941----------A
IRENE--------12/16-------LG--------------------------------------DR
---1969---BG-----M
IRIS GEE-------------------------------------------------------------LP
---1987
IRIS WEBB---------15/25---1.5-2.75"----------------------------R
---1988---BG---A
IRISH EYES--------26/40-----HT---1.5-2.75", BIC------------YB
---1999---BG----A---M
IRISH EYES--------45----HT---2.5-3"---------------------------YB
---1974----A---VG
IRISH HOPE---------------------------------------------------------LY
---1988
IRISH MIST---------17/25---HT---4.5"--------------------------OP
---1966---7.2-----A---M
IRISH ROSE OF INDIA---G/D---26/40---1.5-2.75", BIC-----W
---2001---BG---A---M
IRISH SQUIRE--------17/25---2.75+----------------------------DP
---1966
IRMELA---------------------------------------------------------------W
---1983
ISIS-----------40/50---4-5"------------------------------------------W
---1973-------------A---L
ISLAND OF MAN---------18---1.5-2.75", BIC-----------------OB
---1963------------A
ISLE OF MAN---18---1.5-2.75", BIC---------------------------OB
---1963----------------A
ITALIENISCHES DORFCHEN---4/11---1.5"-----------------OR
---1967---BG---A---L
IVANY---50---CUPPED---1.5-2.75", BIC----------------------RB
---1975----VG
IVORA---35---1.5-2.75", BIC-------------------------------------W
---1986-----------------A---T
IVORY BEAUTY---------------------------------------------------W
---1985
IVORY CHARM--------CL---12/16---2.75+"-------------------W
---1968-----BG/VG-------B
IVORY FASHION, CLIMBING----------------------------------W
---1964
IVORY FASHION-------AARS---HT---17---4.5", BIC-------W
---1958---8.3---VG--A---M
IVORY FLUSH-------P---41+---3.5", BIC----------------------PB
---1996----SG--------A---M
IVORY QUILL-------------------------------------------------------W
---2003
IVORY TIP TOP-------12/16---2-2.5"----------------------------LP
---1976------BG----------A---L
IVORY TRIUMPH------12---3-4", BIC--------------------------W
---1961---6.7---------A---M
J.F. MULLER---------2.75+"--------------------------------------DR
--1929-----BG----------------L
J.H. PIERNEEF-----------------------------------------------------RB
---1994
JACK FROST----42---HT---1.5-2.75"----------------------------W
---2000---4.2---UG-------A---T
JACK OF HEARTS---12/16---CUPPED---------------------------
---1968------BG------L
JACK WOOD--------------------------------------------------------DP
---2000
JACKPOT 99---12/16---1.5-2.75", BIC-------------------------MR
---2000-----CG----------------M---L
JACOB VAN RUYSDAEL----12/16-----------------------------OP
---1997----------------------L
JACQUELINE NEBOUT-----------------------------------------MP
---1989
JACQUELINE------------------------------------------------------OB
---1994
JALTINSKII SUVENIR-------------------------------------------LY
---1956
JAMBOREE-------26---1.5-2 BIC--------------------------------RB
---1964-----SG
JAMES APPLEBY-------12/16--1.5-2.75", BIC----------------OB
---1963------VG
JAN SPEK----------44---FLAT---3", BIC------------------------DY
---1966---6.8-----------A
JAN VERMEER--------BIC-----------------------------------------M
---1997
JANE JACKSON----------17/25 ---------------------------------OB
---1976--------BG/CG-----L
JANE LAZENBY--------25---3.5"-------------------------------MP
---1959---6.6--BG--------A---T
JANE, SOUVENIR DU BARBICON---17/25---1.5-2.75"---DR
---2001---UG---A---T
JANET BEBB---26/40---1.5-2.75", BIC------------------------LY
---1997----CG-------------A---T
JANET FRAZER---12/16---3.5", BIC--------------------------OP
---1937-----------------A
JANINE ASTLE---22---HT---3"--------------------------------MP
---1971----UG-------------A--T
JASPER--------------------------------------------------------------DP
---2001
JAVA---40/45---1.5-2.75", BIC---------------------------------OB
---1955----UG/BG-------A---M
JAZZ FEST---12/16---1.5-2.75"--------------------------------MR
---1971---7.6---BG--------A--T
JAZZ----26---2, BIC---------------------------------------------OB
---1960-------VG-----------A---T
JESMOND DENE----3.5"----------------------------------------OP
---1975----UG--------------B---M
JEAN----------------------------------------------------------------PB
---2004
JEAN ARRIEN MERCER-------------------------------------------
---1991
JEAN DE LA LUNE---17/25---CUPPED---BIC-------------DY
---1965---7.1-----------A---L
JEAN KATHRYN---45---4"-------------------------------------PB
---1973-------VG----------B---T
JEAN MARC ROSE-------------------------------------------------
----1995
JEAN MARC-----------------------------------------------------OR
---1975
JEAN MONNET-------------------------------------------------MP
---1988
JEAN MURAOUR---SPORT------------------------------------W
---1935
JEANETTE TABOT---15/25---1.5", BIC---------------------OP
---1998-----CG-------------A---L
JELcanodir---30---2.5-3"----------------------------------------DY
---1976-------------------A
JELeit---30/35---3"-------------------------------------------------W
---1971-------A---T
JELrandoli---35---3-3.5"-----------------------------------------RB
---1976------------------A
JEMMA GIBLIN---15/25---1.5-2.75", BIC-------------------MY
---1995-----BG---------A---L
JENNIFER--------23---3-3.5", BIC-------------------------------DP
---1959------VG-----A---T
JENNY REILLY-------G/D---17/25---1.5-2.75", S------------OB
---2001-------UG-----------A---T
JENNY WREN---------17/25---1.5"---BIC---------------------AB
---1957-------------------B
JENNYS ROSE----------------------------------------------------LP
---1996
JERUSALEM---------40---2.75+", BIC--------------------------W
---1983----UG/BG-------A---M
JESSIE PATRICIA--------12/16---2.75+", BIC---------------OB
---2000----UG/---------------A---M
JET FIRE---------17/25---CUPPED---2.75+"------------------OR
---1964---6.9---UG/BG---------A---T
JEUNE FILLE---------17/25---1.5-2.75", BIC------------------OP
--1964----BG---------------A---T
JIGS----------G/D---17/25---17/25, BIC-------------------------OR
---2001----UG-----A---L
JILL CARTEL---------15/25---1.5", BIC------------------------YB
---1993----UG--------------A---M
JILLS ROSE--------------------------------------------------------OP
---1998
JILL----------12/16---BIC------------------------------------------MR
---1939------------------A
JILLIAN McGREDY---------17/25---2.75+", BIC-------------LP
---1998----BG--------------A---T
JILLY COOPER-----------------------------------------------------W
---1998
JIM LARKIN----------12/16---1.5", BIC------------------------DR
---2000-----BG------------------M
JIMINY CRICKET-------AARS---3-4", BIC-------------------OP
---1954---6.2---BG--------B---M
JIMINY SAVILE-------25/30---1.5-2.75"-----------------------OB
---1988------BG------------B---L
JINGLES------------35/40---2.5-3"-------------------------------MP
---1956----BG/UL--------------A
JITKA----------------------------------------------------------------Y B
JO McMATH------G/D----41+---1.5-2.75", BIC---------------LY
---2001----CG--------------A---T
JOANIE ---------G/D26/40---1.5-2.75", BIC-------------------AB
---2003-----UG-------------A---T
JOCELYN------3"----------------------------------------------------R
---1970
JOFITALI-----------------------------------------------------------RB
---1976
JOHANN STAUSS---------41+---2.75+", BIC-----------------PB
---1994---7.8---7.5---BG---A---M
JOHANNES BOTTNER-------17/25---HT--2.75+", BIC----MR
---1943---VG/BG-----------A---L
JOHN ABRAMS-----------15---3"--------------------------------OP
---1976
JOHN CHURCH-------------30---HT---3.5", BIC--------------OR
---1964---7.6----------A---T
JOHN CRMPHORN-----------17/25---2.75+"------------------OR
---1980
JOHN DIJKSTRA---------12/16---1.5-2.75"--------------------DR
---1965
JOHN GREENWOOD------25---2.5"---------------------------MR
---1976----SG------------A--M
JOHN HUGHES---------6/14---1.5-2.75"-----------------------AB
---1986----BG-------------A
JOHN LAWRENCE--------18---1.5-2.75", BIC---------------MY
---1990-----UG------------B---M
JOHN-JOHN---------17/25---2.75+", BIC----------------------MY
---1999-----BG------------A---T
JOIA------------------------------------------------------------------ YB
---1962
JOLI COEUR---------17/25---1.5-2.75"--------------------------DR
---1963----VG-------------A
JOLIE COMTOISE-------------------------------------------------OP
--1991
JOLIE PRINCESSE--------17/25---BIC--------------------------PB
---1955---BG--------------A---T
JOLLY GOOD--------55---3.5"-----------------------------------PB
---1973---BG/CG----------A---L
JOLLY JOKER------------------------------------------------------W
JOLLY ROGER---------12/16---CUPPED---1.5-2.75"--------OR
---1973----BG---A---M
JONQUILLE-----------35---2.75+"-------------------------------DY
---1982-----BG
JOSEF ANGENDOHR-----SPORT------------------------------DP
---1982
JOSPICE-------------------------------------------------------------MR
---2004
JOVE--------------12/16---BIC------------------------------------OR
---1968-----------------A
JOVITA------------1.5-2.75", BIC--------------------------------OR
---1975----BG-------------A---M
JOY OF HEALTH--------------------------------------------------MP
---1996
JOY PARFAIT------------SPORT---------------------------------LP
---1965
JOY------------35---1.5", BIC--------------------------------------DP
---1985--------UG----------M
JOYBELLS----------30---3.5", BIC------------------------------MP
--1961------------------A
JOYCE CLAIRE-----------17/25---1.5"--------------------------DP
---1965--------UG------A---T
JOYCE EDMOUNDS---------------------------------------------OP
---1992
JOYCE RILEY------------25---2.5"------------------------------OB
---1978----UG------A---T
JOYOUS---------------SPORT-------------------------------------PB
---1939-------VG/BG
JUANE ADAMS--------------------------------------------------MY
---1997
JUBILANT-------------2.5", BIC---------------------------------LP
---1967------------------A
JUBILATION------------------------------------------------------LP
---1995
JUBILEE CELEBRATION----------20---4"-------------------PB
---1977------------------B
JUDIT-------------35---2.75+"-----------------------------------YB
---1996
JUDY GARLAND-----------35---1.5-2.75", BIC / S---------YB
---1977---7.5---7.2---BG---A---M
JUDY SHAW-------------41+---1.5-2.75", BIC---------------AB
---2000-----UG------------A---T
JUJNOBEREJNAIA--------HT---1.5-2.75"-------------------DR
---1955
JULIA CLEMENTS----------4/11---3", BIC-----------------MR
---1957--------------------T
JULIA FAYE---------------G/D---17/25---2.75", BIC--------M
---2001----CG/BG-------------A---M
JULIE ANDREWS--------4/11---3"---------------------------OP
---1992
JULIE CUSSONS-----------------------------------------------OB
---1988
JULIE DELBARD--------28---HT---2.75+"-----------------AB
---1986-------BG/VG
JULIE EVANS--------G/D---4/11---1.5-2.75", BIC---------LY
---2003----BG---A---M
JULIE SHARP--------25/30---3.5"------------------------------W
---1976----UG-------------A---M
JULISCHKA--------12/16---1.5-2.75"------------------------MR
---1974-----------------A
JUMPIN JACK----------------------------------------------------OP
---1997
JUNE ABERDEEN-----------20---2.5"------------------------OB
---1977-------------------A
JUNE OPIE-------------12/16---3", BIC------------------------AB
---1958----UG------------A---M
JUNES DELIGHT-----------26/40--HT---2", S---------------W
---2000----CG-------------A---M
JUNIOR BRIDEMAID-----------35---M/F---2"--------------MP
--1962-----UG------------A---T
JUNIOR MISS--------------12/16---1.5-2.75", BIC------------PB
--1943---BG-------------A---T
JUNIOR PROM------------30/45---1.5-2"-----------------------DR
---1962----UG------------A---M
JUPON ROSE-----------28---CUPPED---1.5-2.75", BIC------OP
---1982----UG/BG-----A
JUSTA LITTLE GOOFY------------26/40---1.5-2.75"--------OR
---1992---BG-------------A---M
JUTLAND-----------------------------------------------------------DP
---1995
JUTUL-------------14---CUPPED---1.5", BIC------------------DP
---1982------A---M
KAGAYAKI--------------17/25---HT---2.75+"-----------------RB
---1970----VG/UG------------A---T
KAILEEN-----------26/40---1.5-2.75", BIC---------------------OB
---1991----------------A
KALAVALLA------------17/25, BIC----------------------------MP
---1935----VG
KALEIDOSCOPE---------28---3"--------------------------------OB
---1972-----------A
KAMMERSANGER KARL TERKAL---17/25--1.5-2.75"---OB
--1971-------BG----A---L
KANAAL------------------------------------------------------------OP
---1998
KANAK-------------------------------------------------------------YB
---1988
KANEGEM------------42---HT---2.75+"------------------------OR
---1985---8.1---7.9---UG
KANTHA SELVON-----------G/D---26/4----2.75+", BIC----OB
---1999----UG------------A---M
KAPAI-------------30---3.5"---------------------------------------OR
---1977---7.5---6.5---BG---B---L
KAPITI---------------6/14---1.5-2.75"----------------------------MP
---1991----SG-------------M
KAREN POULSEN, CLIMBING-------------------------------MR
KAREN POULSEN---4/11---BIC-------------------------------MR
---1932-----------VG
KAREN RUDALL--------------26/40---3"-----------------------PB
---2000-------UG---------A---T
KARENS PINK LACE--------------41+---1.5-2.75", S-------MP
---1998-----BG-----------A
KAREN----------30/35---3"---------------------------------------MY
---1961-------BG
KARINA ELOISE--------------------------------------------------DR
---2004
KARINE SAUVAGEOT------------------------------------------OP
---1989
KARKULKA-----------------------------------------------------------
---1986
KARL HOCHST------------17/25---2.75+"----------------------DP
---1983-----------------A
KARL WEINHAUSEN----20---ROSETTE---2.75+", BIC---DR
---1942----UG----A---M
KAROLINA------------41+---1.5-2.75"--------------------------MR
---1994
KAROO----------------32---1.5-2.75", BIC----------------------OR
---1988--------BG
KASHMIR--------------CL---17/25---1.5-2.75"------------------M
---1973----VG------------A---T
KASTEEL VAN OOIDONK------------10-----------------------RB
---1995
KATE EMILY McCORMAC-----------8/14---3", BIC--------RB
---1999---SG/BG---A---T
KATE SHEPPARD-------------------------------------------------MP
KATELY ANN------------------------------------------------------MP
---1992-------------M
KATELYN ANN------------OGR---1.5-2.75", BIC------------MP
---1992---7.8---7.5---B
KATHARINA SOPHIA--------------------------------------------LP
---1991
KATHARINE WORSLEY-------28---3.5", BIC---------------MR
---1962------BG--------M
KATHCHEN--------- 2.75+"--------------------------------------MR
---1985
KATHERINE LOKER----------28---HT---3.5"----------------MY
---1978---7.3---7.2---SG---A---M
KATHLEEN FERRIER---------18---2.5", BIC-----------------OP
---1952----UG-----------A---T
KATHLEEN JOYCE-----------30---4"----------------------------LP
---1970-----UG---A
KATHLEENS ROSE----------------------------------------------AB
---1986
KATHRYN BAILEY---------26/40---1.5-2.75"------------------W
---1992---8.0---8.0---VG---A---T
KATHRYN GRAM------------2.75+"----------------------------AB
---1945-----BG------------A---L
KATHY FISCUS---------45---OPEN---1.5-2.75", BIC--------MP
---1950----UG/BG------A--T
KATHY MAE--------------------------------------------------------W
---2002
KATIE CROCKER-------------------------------------------------OR
---1995
KATIROY-----------17/25---1.5-2.75", BIC---------------------OB
---2001-----CG------------A---M
KAY------------17/25---CUPPED----2.75+"---------------------OR
---1971-----UG------------A
KEITH KIRSTEN--------------------------------------------------OR
---1990
KEITHIE-------------------------------------------------------------RB
KENORA DUET------------12/16---OPEN---1.5-2.75"-------AB
---1976-----BG-------A---M
KERRY GOLD-------------3"-------------------------------------YB
---1967
KERRY MacNEIL-------------------------------------------------MR
---1967--------SG
KERRYMAN--------------24---4.5"-------------------------------PB
---1971-----------------A
KESRI--------------17/25---OPEN---1.5"------------------------OR
---1969----VG-----A---T
KESSY---------------------------------------------------------------MY
KI KI PAQUEL-----------------------------------------------------OR
---1962----------CG/UG----L
KISME----------------------------------------------------------------PB
---1960
KIA ORA------------35---2.75+"----------------------------------OR
---1962-------VG/CG---L
KIBOH------------50---CUPPED---2.75+", BIC----------------RB
---1986---7.2---6.5---A---T
KILWORTH PRIDE--------12/16---1.5-2.75", BIC------------DR
---1955------------------L
KIMS CREAM------------26/40---FLAT---2.75+", BIC-------W
---1991----VG/BG----B---L
KIM--------------28---3"-------------------------------------------MY
---1971----------------A---L
KIMBO----------------------------------------------------------------- -
---1977
KIMMY----------------------------------------------------------------- -----1975
KIMONO------------30---3, BIC----------------------------------PB
---1961-------BG-------A---T
KING ARTHUR-----------17/25---3.5", BIC--------------------OP
---1967---6.9-
KING BOREAS-----------100----1.5-2.75"---------------------MY
---1941---5.7-----------A---M
KING REGARDS-------17/25---2.75+", BIC------------------MR
---1956-------BG---M
KINGS TREASURE----------------------------------------------MY
---1995
KINGI---------------35---2.75+"------------------------------------PB
---1983-----------BG-----A
KINGSMEAD HEARITAGE-------------------------------------AB
---1996
KINGSWOOD COLLEGE---------------------------------------MR
---1990
KIORA-----------26---HT---1.5", BIC---------------------------MR
---1989--------UG/BG
KIRSTEN POULSEN, IMPROVED------4/11---BIC---------MR
---1938
KIRSTEN POULSEN------4/11---BIC / S-------------------MR
---1924---7.8------------A-----T
KIRSTY JANE--------28---BIC-----------------------------------OR
---1979---------------BG----T
KISKADEE------25---HT---3.5"------------------------------MY
---1973--------------A
KISS OF FIRE------------------------------------------------------RB
---1960
KISS------------------------------------------------------------------OP
---1988
KITTY CLEO-------------------------------------------------------OB
---2000
KIWI BELLE----------40---2.75+", BIC-------------------------PB
---1983----SG---------B---T
KIWIANA--------G/D ---26/40---1.5-2.75", BIC---------------DP
---2001-----CG---A---M
KLEINE DORTHMUND------------------------------------------RB
---1992
KLUIS SCARLET-------------------------------------------------MR
---1931
KOBOLD---------12/16---2.75+"---------------------------------OP
---1981
KO-CHOC---45---1.5", BIC--------------------------------------OB
---1983----------------A
KOGANE-----------------------------------------------------------MY
KOHARU-BIYORI----------5---1.5-2.75"-----------------------LP
---1999----------------------A---M
KOHIMA------45/50---4"-----------------------------------------RB
---1972------------------B---T
KOKSIJDE----19---FLAT----------------------------------------PB
KOLDINGHUS-------23---OPEN---2-2.5"---------------------DP
---1968-----UG-----------A
KOLIBRE-----------20---HT---3", BIC-------------------------MR
---1946-----------------B---M
KOMBINATION------------------------------------------------------
---1982
KOMFORT---------12/16---2.75+", BIC-----------------------MP
---1967
KOMMODORE--------17/25HT---2.75+", BIC------------MR
---1959----6.4----VG----L
KONIGIN JULIANA--------17/25---2.75+", BIC-----------------
---1948-----------------A
KONIGIN WILHELMINE--------------------------------------MR
---1997
KONRAD GLOCKER------------17/25---3"------------------DR
---1962----------------------L
KON-TIKI----------12/16---CUPPED---2.75+"---------------MR
---1971--- UG/VG----T
KOOSHTI-BOK-----------4/7---1.5-2", BIC-------------------OR
---1997------SG-------A---T
KOPENICKER SOMMER----------17/25---2.75+"----------DY
---1968
KOPRIGAN----------25---2.5"-----------------------------------LP
---1972-----------------A
KORALLE---------------------------------------------------------OP
---1991---7.3
KORALLE------------SPORT-----------------------------------MR
---1942---7.3-----------A
KORALLOVYJ SJURPRIZ-----------17/25---2.75+"--------OP
---1966
KORONA, CLIMBING------------------------------------------OR
---1957
KORONA---------------20---2-5", BIC--------------------------OR
---1955----7.8---VG------A---T
KOSAI--------------------------------------------------------------OP
KOSMOS----------17/25---1.5-2.75"----------------------------DR
KOSTIOR ARTEKA--------2.75+"-----------------------------OR
---1955-----------------A
KOYO-------------17/20---CUPPED---1.5", BIC--------------RB
---1989--- SG---A---M
KRANENBURG-----------32---BIC-----------------------------DR
---1963---------BG
KRASNI MAK-SIN---------------17/25---1.5-2.75"-----------DR
---1975
KRASNOKAMENKA-------12---1.5-2.75"-------------------MR
---1955---------UG
KRASNYI MAK--------26---1.5-2.75"-------------------------MR
---1955---------UG---A---T
KRIOGA-----------35---1.5-2.75", BIC-------------------------LP
---1986----BG
KRISTALL---------------------------------------------------------W
---1979
KRISTINA AV TUNSBORG----17/25---HT---2.75+"-----OR
---1972---BG-------A---T
KRONJUWEL---------------------------------------------------MR
---1997
KRONPRINZESSIN INGRID-------OPEN---17/25---S----MP
---1936-----VG-----A
KRYMCHAKA-------17/25---1.5-2.75"------------------------M
---1955
KUMARADHARA-----------------------------------------------PB
---1988
KUMARI----------------------------------------------------------MP
---1982
KUMBAYA----------22---BIC----------------------------------MY
---1981--------BG---A---L
KUNIGUNDE--------35---HT---2.75+"---------------------------
----1960----VG---A---T
KUSUM------------------------------------------------------------LP
---1978
KWINANA------------4/11---BIC------------------------------RB
---1962------VG---A---T
KYO-MAIKO------------17/25---CUPPED---1.5"-----------OP
---1974----BG----A---L
KYRIA---SPORT-------------------------------------------------LP
---1976
LAIMANT-------------------------------------------------------MP
LA FONTAINE------------20/25---HT---3.5-4, BIC-------MY
---1961---6.6---BG-------A---M
LA MADELON DE PARIS -----17/25---1.5-2.75", BIC---LP
---1962--------VG------T
LA MARYLENE-------------------------------------------------DR
LA PALOMA---------------30---BIC---------------------------W
---1959
LA PERLA--------------------------------------------------------LP
LA RAMEE----------------13---BIC----------------------------DR
---1949-----VG-------T
LA ROSSA--------------------------------------------------------MR
---1999
LA SEVILLANA, CLIMBIMG--------------------------------OR
---1997
LA SEVILLANA---------------13---1.5-2.75"-----------------OR
--- 1978
LA VOULZIE-----------12/16---BIC---------------------------DR
---1953---------VG---------T
LABAREDA------------------------------------------------------MR
LACRE--------------12/16----------------------------------------MR
---1963
LADY BARBARA BLOSSOM-----26/40---2.75+"----------LP
---1997UG---A---T
LADY BEVERLEY----------SPORT----------------------------LP
LADY BIRD--------------17/25---1.5"---BIC------------------YB
---1966--------BG-------A---T


Follow-Up Postings:

 o Post a Follow-Up

Please Note: Only registered members are able to post messages to this forum.

    If you are a member, please log in.

    If you aren't yet a member, join now!


Return to the Rose Exhibiting Forum

Information about Posting

  • You must be logged in to post a message. Once you are logged in, a posting window will appear at the bottom of the messages. If you are not a member, please register for an account.
  • Posting is a two-step process. Once you have composed your message, you will be taken to the preview page. You will then have a chance to review your post, make changes and upload photos.
  • After posting your message, you may need to refresh the forum page in order to see it.
  • Before posting copyrighted material, please read about Copyright and Fair Use.
  • We have a strict no-advertising policy!
  • If you would like to practice posting or uploading photos, please visit our Test forum.
  • If you need assistance, please Contact Us and we will be happy to help.


Learn more about in-text links on this page here